Song name
# A B C D E F G H I J K L M N O P Q R S T U V W X Y Z

Matt Pond Pa - Athabasca tab

Title:  'Athabasca'
Artist: matt pond PA
Album:  The Nature Of Maps
Tabbed by Jorge Díaz (j_diaz_s@yahoo.com)


 Note: Tune the 6th string from E to G.
       Tune the 5th String from A to G.


 Intro:
  
E -----------------------------------|
B -----------------------------------|
G -14-12-0--0---------------------14-|
D -0--0--14-12-0--0--0--0-------12---| (x2)
G -0--0--0--0--14-12-14-12-(12)------|
G -0--0--0--0--0--0--0--0---0--------|


 Verse 1: (0:12)

E ----0--0--0--0--0-------------0--0--0--|
B ----0--0--0--0--0-------------0--0--0--|
G ----0--0--0--0--0-------------0--0--0--|
D ----0--0--0--0--0-------------2--2--2--|
G ----0--0--0--0--0----------------------|
G ----0--0--0--0--0----------------------|
  Athabasca has a hold onto its spring

E ----0--0--0--0--0-------------0--0--0--|
B ----0--0--0--0--0-------------0--0--0--|
G ----0--0--0--0--0-------------0--0--0--|
D ----0--0--0--0--0-------------4--4--5--|
G ----0--0--0--0--0-------------5--5--5--|
G ----0--0--0--0--0----------------------|
 And its rivers never seem to stop going

E -------0---0---0---0--|
B -------0---0---0---0--|
G -------0---0---0---0--|
D -------2---2---2---2--|
G ----------------------|
G ----------------------|
 Follow back into past wintertime

E -------0---0---0---0-------------0-0--0-0--0--|
B -------0---0---0---0-------------0-0--0-0--0--|
G -------0---0---0---0-------------0-0--0-0--0--|
D -------0---0---0---0-------------0-0--0-0--0--|
G -------7---7---7---7-------------5-5--5-5--5--|
G ----------------------------------------------|
 Back to fall back to those early summer



 Verse 2: (0:33)
E ----0--0--0--0--0-------------0--0--0--|
B ----0--0--0--0--0-------------0--0--0--|
G ----0--0--0--0--0-------------0--0--0--|
D ----0--0--0--0--0-------------2--2--2--|
G ----0--0--0--0--0----------------------|
G ----0--0--0--0--0----------------------|
 When you find out what has already been found

E ----0--0--0--0--0-------------0--0--0--|
B ----0--0--0--0--0-------------0--0--0--|
G ----0--0--0--0--0-------------0--0--0--|
D ----0--0--0--0--0-------------4--4--5--|
G ----0--0--0--0--0-------------5--5--5--|
G ----0--0--0--0--0----------------------|
 And the currents are in need of better grounding

E -------0---0---0---0--|
B -------0---0---0---0--|
G -------0---0---0---0--|
D -------2---2---2---2--|
G ----------------------|
G ----------------------|
 What do these parties ever mean to me

E -------0---0---0---0-------------0-0--0-0--0--|
B -------0---0---0---0-------------0-0--0-0--0--|
G -------0---0---0---0-------------0-0--0-0--0--|
D -------0---0---0---0-------------0-0--0-0--0--|
G -------7---7---7---7-------------5-5--5-5--5--|
G ----------------------------------------------|
 When they leave out decency till later



 [ Repeat Intro x2 ]



 (1:14)

E -0--0---0--0--0---0---0--0---0--|
B -0--0---0--0--0---0---0--0---0--|
G -0--0---2--2--2---7---4--4---4--|
D -0--0---0--0--0---0---0--0---0--| (x2)
G -0--0---0--0--0---0---0--0---0--|
G -0--0---0--0--0---0---0--0---0--|


 [ Repeat Verse part ]


 Verse 3: (1:48)

E ----0--0--0--0--0-------------0--0--0--|
B ----0--0--0--0--0-------------0--0--0--|
G ----0--0--0--0--0-------------0--0--0--|
D ----0--0--0--0--0-------------2--2--2--|
G ----0--0--0--0--0----------------------|
G ----0--0--0--0--0----------------------|
 It was your father's grandfather's first fight

E ----0--0--0--0--0-------------0--0--0--|
B ----0--0--0--0--0-------------0--0--0--|
G ----0--0--0--0--0-------------0--0--0--|
D ----0--0--0--0--0-------------4--4--5--|
G ----0--0--0--0--0-------------5--5--5--|
G ----0--0--0--0--0----------------------|
 There's enough from yesterday so that you'll worry 

E -------0---0---0---0--|
B -------0---0---0---0--|
G -------0---0---0---0--|
D -------2---2---2---2--|
G ----------------------|
G ----------------------|
 You find out about your history

E -------0---0---0---0-------------0-0--0-0--0--|
B -------0---0---0---0-------------0-0--0-0--0--|
G -------0---0---0---0-------------0-0--0-0--0--|
D -------0---0---0---0-------------0-0--0-0--0--|
G -------7---7---7---7-------------5-5--5-5--5--|
G ----------------------------------------------|
 And how they left out decency till later


 Verse 4: (2:09)  [ Same as Verse 1 ]

Athabasca has a hold onto its spring
And its rivers never seem to stop going
Follow back into past wintertime
Back to fall back to those early summers 


 Outro: (2:31)

 [ Repeat Verse part ]

 [ Repeat Intro x2 ]


E -0--0---0--0--0---0---0--0---0--|
B -0--0---0--0--0---0---0--0---0--|
G -0--0---2--2--2---7---4--4---4--|
D -0--0---0--0--0---0---0--0---0--| (x2)
G -0--0---0--0--0---0---0--0---0--|
G -0--0---0--0--0---0---0--0---0--|


E --0--0--0--0---0--0--0--0---0--|
B --0--0--0--0---0--0--0--0---0--|
G --0--0--0--0---0--0--0--0---0--|
D --0--0--0--0---0--0--0--0---0--|
G --7--7--7--7---5--5--5--5---0--|
G ----------------------------0--|
Tap to rate this tab
# A B C D E F G H I J K L M N O P Q R S T U V W X Y Z