Guitaretab - guitar tabs
Song name
# A B C D E F G H I J K L M N O P Q R S T U V W X Y Z

Matt Pond Pa - Summer Butcher Two tab

Title:  'Summer (Butcher Two)'
Artist: matt pond PA (mattpondpa.com)
Album:  Emblems
Tabbed by Jorge DŪaz (j_diaz_s@yahoo.com)


 [ Capo on 3rd fret ]


         E A D G B E

C      --x-3-2-0-1-0--|
Cmaj7  --x-3-2-0-0-0--|
Cadd9  --x-3-2-0-3-0--|
Em     --0-2-2-0-0-0--|
Fmaj9  --1-0-3-0-1-0--|
Cmaj9  --3-2-0-0-1-0--|
Am7    --x-0-2-0-1-0--|



 Intro:

 [ Cmaj7  C  Cadd9  C ] x2



 Verse 1: (0:15)

          Cmaj7  C               Em
saturday night     the summerís here

        Cmaj7  C             Em
under clothes    hands disappear


 Chorus 1: (0:32)

            Fmaj9    Cmaj9
E -----------------------------------|
B ----------1---1---1---0---0---0----|
G ------------0---0---0---0---0---0--|
D -----------------------------------|
A -----------------------------------|
E -----------------------------------|
  buttons slip 

                  Am7  Cmaj9
E -----------------------------------|
B --0---0---1---1---1---0---0---0----|
G ----0---0---0---0---0---0---0---0--|
D -----------------------------------|
A -----------------------------------|
E -----------------------------------|
  theyíve gone stray

               Fmaj9  Cmaj9
E -----------------------------------|
B --0---0---1---1---1---0---0---0----|
G ----0---0---0---0---0---0---0---0--|
D -----------------------------------|
A -----------------------------------|
E -----------------------------------|
  with them thoughts 

              Am7      Cmaj9
E -----------------------------------|
B --0---0---1---1---1---0---0---0----|
G ----0---0---0---0---0---0---0---0--|
D -----------------------------------|
A -----------------------------------|
E -----------------------------------|
  have gone away

              Fmaj9      Cmaj9
E ---------(3)----------(3)--------------|
B --0---0-----1---1---1-----0---0---0----|
G ----0---0-----0---0---0-----0---0---0--|
D ---------------------------------------|
A ---------------------------------------|
E ---------------------------------------|
  too far to see

                 Am7      Cmaj9
E ---------(3)----------(3)--------------|
B --0---0-----1---1---1-----0---0---0----|
G ----0---0-----0---0---0-----0---0---0--|
D ---------------------------------------|
A ---------------------------------------|
E ---------------------------------------|
  from the back seat

        Fmaj9  Cmaj9     (Cmaj7)
E ---------(3)----------(3)--|
B --0---0-----1---1---1------|
G ----0---0-----0---0---0----|
D ---------------------------|
A ---------------------------|
E ---------------------------|
  where sleeping is the enemy



 [ Cmaj7  C  Em  ]



 Verse 2: (1:08)

        Cmaj7  C           Em
in our hands     is more sense

                Cmaj7  C                  Em
than butchered words      we donít understand


 Chorus 2: (1:25)

         Fmaj9       Cmaj9
E -----------------------------------|
B ----------1---1---1---0---0---0----|
G ------------0---0---0---0---0---0--|
D -----------------------------------|
A -----------------------------------|
E -----------------------------------|
  to ourselves

             Am7       Cmaj9
E -----------------------------------|
B --0---0---1---1---1---0---0---0----|
G ----0---0---0---0---0---0---0---0--|
D -----------------------------------|
A -----------------------------------|
E -----------------------------------|
  our skin sticks

              Fmaj9  Cmaj9
E -----------------------------------|
B --0---0---1---1---1---0---0---0----|
G ----0---0---0---0---0---0---0---0--|
D -----------------------------------|
A -----------------------------------|
E -----------------------------------|
  our palms sweat

              Am7     Cmaj9
E -----------------------------------|
B --0---0---1---1---1---0---0---0----|
G ----0---0---0---0---0---0---0---0--|
D -----------------------------------|
A -----------------------------------|
E -----------------------------------|
  our teeth click

             Fmaj9        Cmaj9
E ---------(3)----------(3)--------------|
B --0---0-----1---1---1-----0---0---0----|
G ----0---0-----0---0---0-----0---0---0--|
D ---------------------------------------|
A ---------------------------------------|
E ---------------------------------------|
  flashing glimpses 
[ Tab from: http://www.guitaretab.com/m/matt-pond-pa/74058.html ]
          Am7              Cmaj9
E ---------(3)----------(3)--------------|
B --0---0-----1---1---1-----0---0---0----|
G ----0---0-----0---0---0-----0---0---0--|
D ---------------------------------------|
A ---------------------------------------|
E ---------------------------------------|
  do not see

        Fmaj9   Cmaj9    (Cmaj7)
E ---------(3)----------(3)--|
B --0---0-----1---1---1------|
G ----0---0-----0---0---0----|
D ---------------------------|
A ---------------------------|
E ---------------------------|
  when daylight is the enemy


 Interlude: (1:55)


 [ C  Cmaj7  Cadd9  C ]


   Cmaj7   C   Em  Fmaj9    Cmaj9   Am7    Cmaj9     (Fmaj9) 
E -0-----------------------------------------------------|
B ----3--1--0---------------(3)-(0)----------------------|
G ------------0------------------------------------------|
D --------------2--2h3-2-0---------2h3-2-0---------------|
A -------------------------3---------------3-2-0---------|
E -----------------------------------------------3--(1)--|


 Chorus 3: (2.19)

       Fmaj9  Cmaj9
i can barely 
           Am7      Cmaj9
see your blue eyes
       Fmaj9  Cmaj9
i can barely 
          Am7  Cmaj9
make them out

           Fmaj9      Cmaj9
E -----------------------------------|
B ----------1---1---1---0---0---0----|
G ------------0---0---0---0---0---0--|
D -----------------------------------|
A -----------------------------------|
E -----------------------------------|
  itís alright

             Am7       Cmaj9
E -----------------------------------|
B --0---0---1---1---1---0---0---0----|
G ----0---0---0---0---0---0---0---0--|
D -----------------------------------|
A -----------------------------------|
E -----------------------------------|
  in this red

              Fmaj9   Cmaj9
E -----------------------------------|
B --0---0---1---1---1---0---0---0----|
G ----0---0---0---0---0---0---0---0--|
D -----------------------------------|
A -----------------------------------|
E -----------------------------------|
  your mouth tastes perfectly like 

            Am7       Cmaj9
E -----------------------------------|
B --0---0---1---1---1---0---0---0----|
G ----0---0---0---0---0---0---0---0--|
D -----------------------------------|
A -----------------------------------|
E -----------------------------------|
  cigarettes

             Fmaj9        Cmaj9
E ---------(3)----------(3)--------------|
B --0---0-----1---1---1-----0---0---0----|
G ----0---0-----0---0---0-----0---0---0--|
D ---------------------------------------|
A ---------------------------------------|
E ---------------------------------------|
  itís ok 

          Am7              Cmaj9
E ---------(3)----------(3)--------------|
B --0---0-----1---1---1-----0---0---0----|
G ----0---0-----0---0---0-----0---0---0--|
D ---------------------------------------|
A ---------------------------------------|
E ---------------------------------------|
  it is fine

        Fmaj9   Cmaj9                  (Cmaj7)
E ---------(3)----------(3)--|
B --0---0-----1---1---1------|
G ----0---0-----0---0---0----|
D ---------------------------|
A ---------------------------|
E ---------------------------|
  thereís nothing just one thing on our mind


 [ Cmaj7  C  Cadd9  C ]


 Outro: (3:42)

            Fmaj9 Cmaj9           Am7 Cmaj9
E ----------------3-----3------------3--|
B --------------1-----1-----1-----1-----|
G ------------0-----0-----0-----0-------|
D --------------------------------------|
A --------------------------------------|
E --------------------------------------|
  saturday night        summerís here

               Fmaj9 Cmaj9        Am7 Cmaj9
E ------3-----------3-----3------------3--|
B ----1-----1-----1-----1-----1-----1-----|
G --0-----0-----0-----0-----0-----0-------|
D ----------------------------------------|
A ----------------------------------------|
E ----------------------------------------|
  the sound of breath is in our ears

               Fmaj9 Cmaj9              Am7 Cmaj9
E --------------------------------------|
B --------------5r3-3r1-1r0-------------|
G -------------------------4r2-2r0------|
D --------------------------------------|
A --------------------------------------|
E --------------------------------------|
  guess the coast         is completely clear

        Fmaj9 Cmaj9   (Cmaj7)
E ----------------------------|
B -------5r3-3r1-1r0----------|
G ------------------4r2-2r0---|
D ----------------------------|
A ----------------------------|
E ----------------------------|
  into water we disappear 


 [ Cmaj7  C  C  Cadd9 ] x2

 [ Cmaj7  C  Cadd9  C ] x2
 
Related for Summer Butcher Two tab