Guitaretab - guitar tabs
Song name
# A B C D E F G H I J K L M N O P Q R S T U V W X Y Z

Matt Pond Pa - A New Part Of Town tab

Title:  'A New Part of Town'
Artist: matt pond PA (mattpondpa.com)
Album:  The Green Fury
Tabbed by Jorge Díaz (j_diaz_s@yahoo.com)


 Note: Tune the 6th string from E to G.
       Tune the 5th String from A to G.
       Tune the 1st string from E to D.



 Intro:

D ------------------------------------|
B ------------------------------------|
G ------0--------0--------0--------0--|
D ------0--------0--------0--------0--|
G --0-0-0--0-0-0-0--0-0-0-0--0-0-0-0--|
G --0-0-0--0-0-0-0--0-0-0-0--0-0-0-0--|
             (Keep playing)
  (One guitar plays this part during Verses)


 (0:33)

  D ------------------------------------|
  B ------------------------------------|
  G -------0-2-0-------------0-2-0------|
  D ---0-4-------4-0-----0-4-------4-0--|
  G -0-----------------0----------------|
  G ------------------------------------|



 Verse 1: (0:40)

D ------------------------------------|
B ------------------------------------|
G -------0-2-0-------------0-2-0------|
D ---0-4-------4-0-----0-4-------4-0--|
G -0-----------------0----------------|
G ------------------------------------|
  the ghost of the ghost

D --------------------------------|
B -----------------------------3--|
G -------0-2-0-------------0-2----|
D ---0-4-------4-0-----0-4--------|
G -0-----------------0------------|
G --------------------------------|
  barely exists

D ------------------------------------|
B ------------------------------------|
G -------0-2-0-------------0-2-0------|
D ---0-4-------4-0-----0-4-------4-0--|
G -0-----------------0----------------|
G ------------------------------------|
  but he knows what he knows

D --------------------------------|
B -----------------------------3--|
G -------0-2-0-------------0-2----|
D ---0-4-------4-0-----0-4--------|
G -0-----------------0------------|
G --------------------------------|
  and he wants to be sure

D ------------------------------------|
B ------------------------------------|
G -------0-2-0-------------0-2-0------|
D ---0-4-------4-0-----0-4-------4-0--|
G -0-----------------0----------------|
G ------------------------------------|
  that you see him


 Verse 2: (1:01)

D ------------------------------------|
B ------------------------------------|
G -------0-2-0-------------0-2-0------|
D ---0-4-------4-0-----0-4-------4-0--|
G -0-----------------0----------------|
G ------------------------------------|
  he was alive 

D --------------------------------|
B -----------------------------3--|
G -------0-2-0-------------0-2----|
D ---0-4-------4-0-----0-4--------|
G -0-----------------0------------|
G --------------------------------|
  when he slept with the snow

D ------------------------------------|
B ------------------------------------|
G -------0-2-0-------------0-2-0------|
D ---0-4-------4-0-----0-4-------4-0--|
G -0-----------------0----------------|
G ------------------------------------|
  now we know that he lies

D --------------------------------|
B -----------------------------3--|
G -------0-2-0-------------0-2----|
D ---0-4-------4-0-----0-4--------|
G -0-----------------0------------|
G --------------------------------|
  cause he says he wasn't cold

D ------------------------------------|
B ------------------------------------|
G -------0-2-0-------------0-2-0------|
D ---0-4-------4-0-----0-4-------4-0--|
G -0-----------------0----------------|
G ------------------------------------|
  he's freezing


 Chorus: (1:21)

D ------------------------------------|
B ------------------------------------|
G ------0--------0--------0--------0--|
D ------0--------0--------0--------0--|
G --0-0-0--0-0-0-0--0-0-0-0--0-0-0-0--|
G --0-0-0--0-0-0-0--0-0-0-0--0-0-0-0--|
  he's been looking for some water
[ Tab from: http://www.guitaretab.com/m/matt-pond-pa/74159.html ]
D --------------------------------------------|
B --------------------------------------------|
G ------0------0------0------0------0------0--|
D ------0------0------0------0------0------0--|
G --5-5-5--5-5-5--5-5-5--4-4-4--4-4-4--4-4-4--|
G --5-5-5--5-5-5--5-5-5--4-4-4--4-4-4--4-4-4--|
  in a new part of town, in a new part of town

D ------------------------------------|
B ------------------------------------|
G ------0--------0--------0--------0--|
D ------0--------0--------0--------0--|
G --0-0-0--0-0-0-0--0-0-0-0--0-0-0-0--|
G --0-0-0--0-0-0-0--0-0-0-0--0-0-0-0--|
  stronger fingers won't relinquish

D --------------------------------------------|
B --------------------------------------------|
G ------0------0------0------0------0------0--|
D ------0------0------0------0------0------0--|
G --5-5-5--5-5-5--5-5-5--4-4-4--4-4-4--4-4-4--|
G --5-5-5--5-5-5--5-5-5--4-4-4--4-4-4--4-4-4--|
you don't see him around, you don't see him around

D ---------------------------|
B ---------------------------|
G ------0--------0--------0--|
D ------0--------0--------0--|
G --2-2-2--2-2-2-2--2-2-2-2--|
G --2-2-2--2-2-2-2--2-2-2-2--|
  you don't see him


  D ------------------------------------|
  B ------------------------------------|
  G -------0-2-0-------------0-2-0------|
  D ---0-4-------4-0-----0-4-------4-0--| x2
  G -0-----------------0----------------|
  G ------------------------------------|



 Verse 3: (2:06) (Same as Verse 1-2)

the ghost of the ghost
goes out to shows
and he stays in the back
and he keeps his eyes closed
you can't see him

  D --------------------------------------|
  B --------------------------------------|
  G -------0-2-0-------------0-2-0--------|
  D ---0-4-------4-0-----0-4-------4-0----|
  G -0-----------------0---------------4--|
  G --------------------------------------|


 Outro: (2:34)


D --0-0-0-0---0-0-0-0---0-0-0-0--|
B --0-0-0-0---0-0-0-0---0-0-0-0--|
G --0-0-0-0---0-0-0-0---0-0-0-0--|
D --0-0-0-0---0-0-0-0---0-0-0-0--|
G --0-0-9-4---0-0-7-2---0-0-7-0--|
G --0-0-9-4---0-0-7-2---0-0-7-0--|


D --0-0-0-0---0-0-0-0---0-0-0-0--------------|
B --0-0-0-0---0-0-0-0---0-0-0-0--------------|
G --0-0-0-0---0-0-0-0---0-0-0-0---0-0-0-0-0--|
D --0-0-0-0---0-0-0-0---0-0-0-0---0-0-0-0-0--|
G --0-0-9-4---0-0-7-2---0-0-7-0---0-0-0-0-0--|
G --0-0-9-4---0-0-7-2---0-0-7-0---0-0-0-0-0--|


 (2:51)

D --0-0-0-0---0-0-0-0---0-0-0-0--------------|
B --0-0-0-0---0-0-0-0---0-0-0-0--------------|
G --0-0-0-0---0-0-0-0---0-0-0-0---0-0-0-0-0--|
D --0-0-0-0---0-0-0-0---0-0-0-0---0-0-0-0-0--|
G --0-0-9-4---0-0-7-2---0-0-7-0---0-0-0-0-0--|
G --0-0-9-4---0-0-7-2---0-0-7-0---0-0-0-0-0--|
       silence breathes     better than I could have

D --0-0-0-0---0-0-0-0---0-0-0-0--------------|
B --0-0-0-0---0-0-0-0---0-0-0-0--------------|
G --0-0-0-0---0-0-0-0---0-0-0-0---0-0-0-0-0--|
D --0-0-0-0---0-0-0-0---0-0-0-0---0-0-0-0-0--|
G --0-0-9-4---0-0-7-2---0-0-7-0---0-0-0-0-0--|
G --0-0-9-4---0-0-7-2---0-0-7-0---0-0-0-0-0--|
  all the things we'll never know 

D --0-0-0-0---0-0-0-0---0-0-0-0--------------|
B --0-0-0-0---0-0-0-0---0-0-0-0--------------|
G --0-0-0-0---0-0-0-0---0-0-0-0---0-0-0-0-0--|
D --0-0-0-0---0-0-0-0---0-0-0-0---0-0-0-0-0--|
G --0-0-9-4---0-0-7-2---0-0-7-0---0-0-0-0-0--|
G --0-0-9-4---0-0-7-2---0-0-7-0---0-0-0-0-0--|
       silence leaves       fills up with confusion 

D --0-0-0-0---0-0-0-0---0-0-0-0--------------|
B --0-0-0-0---0-0-0-0---0-0-0-0--------------|
G --0-0-0-0---0-0-0-0---0-0-0-0---0-0-0-0-0--|
D --0-0-0-0---0-0-0-0---0-0-0-0---0-0-0-0-0--|
G --0-0-9-4---0-0-7-2---0-0-7-0---0-0-0-0-0--|
G --0-0-9-4---0-0-7-2---0-0-7-0---0-0-0-0-0--|
  all the things we'll always know 
 

 (3:23)

D --0-0-0-0---0-0-0-0---0-0-0-0---0--|
B --0-0-0-0---0-0-0-0---0-0-0-0---0--|
G --0-0-0-0---0-0-0-0---0-0-0-0---0--|
D --0-0-0-0---0-0-0-0---0-0-0-0---0--|
G --0-0-9-4---0-0-7-2---0-0-7-0---5--| x3
G --0-0-9-4---0-0-7-2---0-0-7-0---5--|


D --0-0-0-0---0-0-0-0---0-0-0-0---0--|
B --0-0-0-0---0-0-0-0---0-0-0-0---0--|
G --0-0-0-0---0-0-0-0---0-0-0-0---0--|
D --0-0-0-0---0-0-0-0---0-0-0-0---0--|
G --0-0-9-4---0-0-7-2---0-0-7-0---0--|
G --0-0-9-4---0-0-7-2---0-0-7-0---0--|
Related for A New Part Of Town tab