Song name
# A B C D E F G H I J K L M N O P Q R S T U V W X Y Z

Matt Pond Pa - A Million Middle Fingers tab

Title:  'A Million Middle Fingers'
Artist: matt pond PA (mattpondpa.com)
Album:  The Nature Of Maps
Tabbed by Jorge Díaz (j_diaz_s@yahoo.com)


 Intro: (0:03)

E --------------------------------|
B ----(hold note)----(hold note)--|
G --5--------------2--------------|
D --------------------------------| (x2)
A --------------------------------|
E --------------------------------|
   (keybords part, this is also played during verses)


 (0:10)

   (C)          (Am)
E ---------------------------|
B ---------------------------|
G ---------5------------2----|
D -----5-----5------2-----2--|
A -3-3---3------0-0---0------|
E ---------------------------|
   (this is also played during verses)


 (0:14)

    C    Am  C   Am         C      Am       C   Am
E ---------------3-----------------------3----------|
B -5--3--1---3-----5--5s3---3s5--3--1--1----5--3-1--|
G --------------------------------------------------|
D --------------------------------------------------|
A --------------------------------------------------|
E --------------------------------------------------|


 Verse 1: (0:27)

                C    Am               C           Am
E --------------------------|----------------------3-----------|
B --------------5--3--1-----|---------3--------------5----5s3--|
G --------------------------|----------------------------------|
D --------------------------|----------------------------------|
A --------------------------|----------------------------------|
E --------------------------|----------------------------------|
 Sometimes it comes through, In the smallest complications

                C       Am               C              Am
E ------------------------3-|--------------------------------|
B ------------3s5---3---1---|------------5----------------1--|
G --------------------------|--------------------------------|
D --------------------------|--------------------------------|
A --------------------------|--------------------------------|
E --------------------------|--------------------------------|
 You need to get there soon, But you're lost outside of Boston


 Chorus 1: (0:42)

                   Dm   Am   Dm              Am
E -----------------------3-|----------3-----------|
B -----------------1-3-5---|---1--3------5---5s3--|
G -------------------------|----------------------|
D -------------------------|----------------------|
A -------------------------|----------------------|
E -------------------------|----------------------|
 There's no need for proof, These are bad directions

   Dm                  Am      G
E ---------------------------|--------7-8--------7-8------|
B --5-------3----------1--3--|-8-8--8-----8-8--8-----8-8--|
G ---------------------------|----------------------------|
D ---------------------------|----------------------------|
A ---------------------------|----------------------------|
E ---------------------------|----------------------------|
 Don't you know that people, Don't mind when you lose


 Verse 2: (0:56)

                       C  Am                 C           Am
E -------------------------------8---8--|--------------------5---5--|
B ---------------------5-3-1---8---8----|----5s3-----------5---5----|
G --------------------------------------|---------------------------|
D --------------------------------------|---------------------------|
A --------------------------------------|---------------------------|
E --------------------------------------|---------------------------|
  You were yelling like you knew,   And pointing out the exits

                C       Am      C           Am
E -------------------------|-------------------|
B --------------3s5--3--1--|---5--3---------1--|
G -------------------------|-------------------|
D -------------------------|-------------------|
A -------------------------|-------------------|
E -------------------------|-------------------|
 The devil had told you, to break up the connection


 Chorus 2: (1:11)

                   Dm   Am   Dm              Am
E -----------------------3-|----------3-----------|
B -----------------1-3-5---|---1--3------5---5s3--|
G -------------------------|----------------------|
D -------------------------|----------------------|
A -------------------------|----------------------|
 It all starts coming true, These are bad directions

   Dm                  Am      G
E ---------------------------|--------7-8--------7-8------|
B --5-------3----------1--3--|-8-8--8-----8-8--8-----8-8--|
G ---------------------------|----------------------------|
D ---------------------------|----------------------------|
A ---------------------------|----------------------------|
E ---------------------------|----------------------------|
 Don't you know that people, like it when you lose 


 Outro: (1:27)

   (C)          (Am)
E --------7-8--------7-8------|
B -8-8--8-----8-8--8-----8-8--|
G ----------------------------|
D ----------------------------|
A ----------------------------|
E ----------------------------|
   (Repeat to fade)
Tap to rate this tab
# A B C D E F G H I J K L M N O P Q R S T U V W X Y Z