Guitaretab - guitar tabs
Song name
# A B C D E F G H I J K L M N O P Q R S T U V W X Y Z

Matt Pond Pa - Fortune Flashlight tab

Title:  'Fortune Flashlight'
Artist: matt pond PA (mattpondpa.com)
Album:  Deer Apartments
Tabbed by Jorge Díaz (j_diaz_s@yahoo.com)


 Note: Tune the 6th string from E to G.
       Tune the 5th String from A to G.
       Tune the 1st string from E to D.


 Intro:

D ------------------------------------------|
B ------------------------------------------|
G -------2-----2---------2-----2---------2--|
D -------0-----0---------0-----0---------0--|
G -0--0-----0-----0---0-----0-----0---0-----|
G -0--0-----0-----0---0-----0-----0---0-----|


 Verse 1: (0:06)

D --------------------------------------------------|
B --------------------------------------------------|
G -------2-----2---------2-----2---------2--------2-|
D -------0-----0---------0-----0---------0--------0-|
G -0--0-----0-----0---0-----0-----0---0-----0--0----|
G -0--0-----0-----0---0-----0-----0---0-----0--0----|
  fortune, point it out with flashlights, underneath

D ------0--0--0--0-----0------------------------------------|
B ------0--0--0-----0--0------------------------------------|
G ------0--0--0-----0--0---------------2-----2-----2-----2--|
D ------0--0--0--------0---------------0-----0-----0-----0--|
G ------5--5--5--------5---------0--0-----0-----0-----0-----|
G ------5--5--5--------5---------0--0-----0-----0-----0-----|
  the tree limb, hoping that the bough breaks

D --------------------------------------------------|
B --------------------------------------------------|
G -------2-----2---------2-----2---------2--------2-|
D -------0-----0---------0-----0---------0--------0-|
G -0--0-----0-----0---0-----0-----0---0-----0--0----|
G -0--0-----0-----0---0-----0-----0---0-----0--0----|
  all night, set your heart on all night, the dark no longer

D --0--0--0--0-----0----------------------------------|
B --0--0--0-----0--0----------------------------------|
G --0--0--0-----0--0-------------2-----2-----2-----2--|
D --0--0--0--------0-------------0-----0-----0-----0--|
G --5--5--5--------5-------0--0-----0-----0-----0-----|
G --5--5--5--------5-------0--0-----0-----0-----0-----|
  scares you, girls to fence the green


 Bridge: (0:32)

D --0--0--0--0--0--0--0-----0--0--0--|
B --0--0--0--0--0--0--0-----0--0--0--|
G --0--0--0--0--0--0--0-----0--0--0--|
D --0--0--0--0--0--0--0-----0--0--0--|
G --0--0--0--0--0--0--0-----7--7--7--|
G --0--0--0--0--0--0--0-----7--7--7--|
 when you find out how you feel

D --0--0--0--0--0--0--0-----0--0--0--|
B --0--0--0--0--0--0--0-----0--0--0--|
G --0--0--0--0--0--0--0-----0--0--0--|
D --0--0--0--0--0--0--0-----0--0--0--|
G --0--0--0--0--0--0--0-----7--7--7--|
G --0--0--0--0--0--0--0-----7--7--7--|
 when the rain first hits the fields 

D --0--0--0--0--0--0--0-----0--0--0--|
B --0--0--0--0--0--0--0-----0--0--0--|
G --0--0--0--0--0--0--0-----0--0--0--|
D --0--0--0--0--0--0--0-----0--0--0--|
G --0--0--0--0--0--0--0-----7--7--7--|
G --0--0--0--0--0--0--0-----7--7--7--|
 and you're running for the door

D --0--0--0--0--0--0--0-------------|
B --0--0--0--0--0--0--0-------------|
G --0--0--0--0--0--0--0-------------|
D --0--0--0--0--0--0--0-------------|
G --0--0--0--0--0--0--0---------2b--|
G --0--0--0--0--0--0--0---------2b--|
 because you wanted so much more


 (0:46)

D --------------------------------------------------|
B --------------------------------------------------|
G -------2-----2---------2-----2---------2--------2-|
D -------0-----0---------0-----0---------0--------0-|
G -0--0--0--0--0--0---0--0--0--0--0---0--0--0--0--0-|
G -0--0--0--0--0--0---0--0--0--0--0---0--0--0--0--0-|



 Verse 2: (0:52)

D --------------------------------------------------|
B --------------------------------------------------|
G -------2-----2---------2-----2---------2--------2-|
D -------0-----0---------0-----0---------0--------0-|
G -0--0--0--0--0--0---0--0--0--0--0---0--0--0--0--0-|
G -0--0--0--0--0--0---0--0--0--0--0---0--0--0--0--0-|
  fall in, board's to weak to stand on, as you catch 

D -----0--0--0--0-----0------------------------------------------|
B -----0--0--0-----0--0------------------------------------------|
G -----0--0--0-----0--0---------------------2-----2-----2-----2--|
D -----0--0--0--------0---------------------0-----0-----0-----0--|
G -----5--5--5--------5---------------0--0--0--0--0--0--0--0--0--|
G -----5--5--5--------5---------------0--0--0--0--0--0--0--0--0--|
  a glimpse of your own eyes crossing the water

D --------------------------------------------------|
B --------------------------------------------------|
G -------2-----2---------2-----2---------2--------2-|
D -------0-----0---------0-----0---------0--------0-|
G -0--0--0--0--0--0---0--0--0--0--0---0--0--0--0--0-|
G -0--0--0--0--0--0---0--0--0--0--0---0--0--0--0--0-|
  forward, spilling from the back seat, leading with 

D -----0--0--0--0-----0------------------------------------------|
B -----0--0--0-----0--0------------------------------------------|
G -----0--0--0-----0--0---------------------2-----2-----2-----2--|
D -----0--0--0--------0---------------------0-----0-----0-----0--|
G -----5--5--5--------5---------------0--0--0--0--0--0--0--0--0--|
G -----5--5--5--------5---------------0--0--0--0--0--0--0--0--0--|
  your best foot behind you onto the pavement


 Bridge 2: (1:19)  [ Play Bridge part here ]

D --5-----3----------|--3----------------|
B -----3--------3----|-----1--1s5--3-----|
G -------------------|-------------------|
D -------------------|-------------------|
G -------------------|-------------------|
G -------------------|-------------------|

D --5-----3----------|-------------------|
B -----3------5---0--|--0---3--3b--3b----|
G -------------------|-------------------|
D -------------------|-------------------|
G -------------------|-------------------|
G -------------------|-------------------|


 Chorus (1:31)

D --------------5--5--5--5-------5--5--5---|
B --------------0--0--0--0-------0--0--0---|
G --------------0--0--0--0-------0--0--0---|
D --------------0--0--0--0-------0--0--0---|
G --------------5--5--5--5-------0--0--0---|
G --------------5--5--5--5-------4--4--4---|
  you wait too long, you go too far 

D --------------0--0--0--0-------0--0--0---|
B --------------0--0--0--0-------0--0--0---|
G --------------0--0--0--0-------0--0--0---|
D --------------0--0--0--0-------0--0--0---|
G --------------2--2--2--2-------0--0--0---|
G --------------2--2--2--2-------4--4--4---|
  before you've had a chance to start
[ Tab from: http://www.guitaretab.com/m/matt-pond-pa/74810.html ]
D --------------5--5--5--5-------5--5--5---|
B --------------0--0--0--0-------0--0--0---|
G --------------0--0--0--0-------0--0--0---|
D --------------0--0--0--0-------0--0--0---|
G --------------5--5--5--5-------0--0--0---|
G --------------5--5--5--5-------4--4--4---|
  it's all on you and you don't know why

D ----------0--0--0--0----------------------------------------|
B ----------0--0--0--0----------------------------------------|
G ----------0--0--0--0-------------------2-----2-----2-----2--|
D ----------0--0--0--0-------------------0-----0-----0-----0--|
G ----------2--2--2--2-------------0--0--0--0--0--0--0--0--0--|
G ----------2--2--2--2-------------0--0--0--0--0--0--0--0--0--|
  turning blue and you don't know why



 (1:51)

D --7-0----7-0----7-0----7-0----7--|
B ------0------0------0------0-----|
G ---------------------------------|
D ---------------------------------|
G ---------------------------------|
G ---------------------------------|

D --7-0----7-0----7------7------7--|
B ------0------0------0------0-----|
G ---------------------------------|
D ---------------------------------|
G -(5-5-5)-(4-4-4)-(7-7-7)-(4-4-4)-|
G ---------------------------------|

D ---------------------------------|
B ---------------------------------|
G ---------------------------------|
D ---------------------------------| (x6)
G -5-(5-5)-4-(4-4)-7-(7-7)-4-(4-4)-|
G ---------------------------------|


 Bridge 3: (2:18)

D --------------------------0--0--0--|
B --------------------------0--0--0--|
G --0--0--0--0--0--0--0-----0--0--0--|
D --0--0--0--0--0--0--0-----0--0--0--|
G --0--0--0--0--0--0--0-----7--7--7--|
G --0--0--0--0--0--0--0-----7--7--7--|
  before the time today

D --------------------------0--0--0--|
B --------------------------0--0--0--|
G --0--0--0--0--0--0--0-----0--0--0--|
D --0--0--0--0--0--0--0-----0--0--0--|
G --0--0--0--0--0--0--0-----7--7--7--|
G --0--0--0--0--0--0--0-----7--7--7--|
  you're watching what you say

D --------------------------0--0--0--|
B --------------------------0--0--0--|
G --0--0--0--0--0--0--0-----0--0--0--|
D --0--0--0--0--0--0--0-----0--0--0--|
G --0--0--0--0--0--0--0-----7--7--7--|
G --0--0--0--0--0--0--0-----7--7--7--|
  you've lost your only clue

D --0--0--0--0--0--0--0--0--0--0--|
B --0--0--0--0--0--0--0--0--0--0--|
G --0--0--0--0--0--0--0--0--0--0--|
D --0--0--0--0--0--0--0--0--0--0--|
G --0--0--0--0--0--0--0--0--0--0--|
G --0--0--0--0--0--0--0--0--0--0--|
  tell me what me what to do


 Chorus: (2:30)

D --------------5--5--5--5-------5--5--5---|
B --------------0--0--0--0-------0--0--0---|
G --------------0--0--0--0-------0--0--0---|
D --------------0--0--0--0-------0--0--0---|
G --------------5--5--5--5-------0--0--0---|
G --------------5--5--5--5-------4--4--4---|
  you wait too long you go too far 

D --------------0--0--0--0-------0--0--0---|
B --------------0--0--0--0-------0--0--0---|
G --------------0--0--0--0-------0--0--0---|
D --------------0--0--0--0-------0--0--0---|
G --------------2--2--2--2-------0--0--0---|
G --------------2--2--2--2-------4--4--4---|
  before you've had a chance to start

D --------------5--5--5--5-------5--5--5---|
B --------------0--0--0--0-------0--0--0---|
G --------------0--0--0--0-------0--0--0---|
D --------------0--0--0--0-------0--0--0---|
G --------------5--5--5--5-------0--0--0---|
G --------------5--5--5--5-------4--4--4---|
  it's all on you and you don't know why

D --------------0--0--0--0-------0--0--0---|
B --------------0--0--0--0-------0--0--0---|
G --------------0--0--0--0-------0--0--0---|
D --------------0--0--0--0-------0--0--0---|
G --------------2--2--2--2-------0--0--0---|
G --------------2--2--2--2-------4--4--4---|
  turning blue and you don't know why


 (2:43)

   D --------------5--5--5--5-------5--5--5---|
   B --------------0--0--0--0-------0--0--0---|
   G --------------0--0--0--0-------0--0--0---|
1  D --------------0--0--0--0-------0--0--0---|
   G --------------5--5--5--5-------0--0--0---|
   G --------------5--5--5--5-------4--4--4---|

   D --------------5------5-----5------5------|
   B ----------------3-3----3-----3-3----3----|
   G -----------------------------------------|
2  D -----------------------------------------|
   G -----------------------------------------|
   G -----------------------------------------|
     the simple part is I haven't changed 

   D --------------0--0--0--0-------0--0--0---|
   B --------------0--0--0--0-------0--0--0---|
   G --------------0--0--0--0-------0--0--0---|
1  D --------------0--0--0--0-------0--0--0---|
   G --------------2--2--2--2-------0--0--0---|
   G --------------2--2--2--2-------4--4--4---|

   D -----------------------------------------|
   B --------------3------3-----3------3------|
   G ----------------0-0----0-----0-0----0----|
2  D -----------------------------------------|
   G -----------------------------------------|
   G -----------------------------------------|
     everything is not the same

   D --------------5--5--5--5-------5--5--5---|
   B --------------0--0--0--0-------0--0--0---|
   G --------------0--0--0--0-------0--0--0---|
1  D --------------0--0--0--0-------0--0--0---|
   G --------------5--5--5--5-------0--0--0---|
   G --------------5--5--5--5-------4--4--4---|

   D --------------5------5-----5------5------|
   B ----------------3-3----3-----3-3----3----|
   G -----------------------------------------|
2  D -----------------------------------------|
   G -----------------------------------------|
   G -----------------------------------------|
     it's all on you and you don't know why

   D ----------0--0--0--0----------------------------------------|
   B ----------0--0--0--0----------------------------------------|
   G ----------0--0--0--0-------------------2-----2-----2-----2--|
1  D ----------0--0--0--0-------------------0-----0-----0-----0--|
   G ----------2--2--2--2-------------0--0--0--0--0--0--0--0--0--|
   G ----------2--2--2--2-------------0--0--0--0--0--0--0--0--0--|

   D ----------------------------------|
   B --------------3------3-----3------|
   G ----------------0-0----0-----0-0--|
2  D ----------------------------------|
   G ----------------------------------|
   G ----------------------------------|
     turning blue and you don't know why 

                                            *
D ---------------------------------------------|
B ---------------------------------------------|
G -------2-----2---------2-----2---------2--0--|
D -------0-----0---------0-----0---------0--0--|
G -0--0--0--0--0--0---0--0--0--0--0---0--0--0--|
G -0--0--0--0--0--0---0--0--0--0--0---0--0--0--|
Related for Fortune Flashlight tab
×
Fortune Flashlight