Song name
# A B C D E F G H I J K L M N O P Q R S T U V W X Y Z

Matt Pond Pa - Neighbors New Yard tab

Title:  'Neighbor's New Yard'
Artist: matt pond PA (mattpondpa.com)
Album:  The Green Fury
Tabbed by Jorge Díaz (j_diaz_s@yahoo.com)


 Note: Tune the 6th string from E to G.
       Tune the 5th String from A to G.
       Tune the 1st string from E to D.


 Intro: (0:05)

D --9-9-9--2-2-2--4-4-4-4--2-2-2--|
B --9-9-9--2-2-2--4-4-4-4--2-2-2--|
G --9-9-9--2-2-2--4-4-4-4--2-2-2--|
D --9-9-9--2-2-2--4-4-4-4--2-2-2--| (x2)
G --9-9-9--2-2-2--4-4-4-4--2-2-2--|
G --9-9-9--2-2-2--4-4-4-4--2-2-2--|


 (0:16)

D --9-9-9-9-----2-2-2-2------4-4-4-4---2-2-2-2--|
B --9-9-9-9-----2-2-2-2------4-4-4-4---2-2-2-2--|
G --9-9-9-9-----2-2-2-2------4-4-4-4---2-2-2-2--|
D --9-9-9-9-----2-2-2-2------4-4-4-4---2-2-2-2--|
G --9-9-9-9-----2-2-2-2------4-4-4-4---2-2-2-2--|
G --9-9-9-9-----2-2-2-2------4-4-4-4---2-2-2-2--|
  Each mark in softer ground leads to another one

D --9-9-9-9---2-2-2-2-----4-4-4-4--------2-2-2-2--|
B --9-9-9-9---2-2-2-2-----4-4-4-4--------2-2-2-2--|
G --9-9-9-9---2-2-2-2-----4-4-4-4--------2-2-2-2--|
D --9-9-9-9---2-2-2-2-----4-4-4-4--------2-2-2-2--|
G --9-9-9-9---2-2-2-2-----4-4-4-4--------2-2-2-2--|
G --9-9-9-9---2-2-2-2-----4-4-4-4--------2-2-2-2--|
 Follow them down to the Neighbor's new yard

D --9-9-9-9---2-2-2-2----------4-4-4-4-----2-2-2-2--|
B --9-9-9-9---2-2-2-2----------4-4-4-4-----2-2-2-2--|
G --9-9-9-9---2-2-2-2----------4-4-4-4-----2-2-2-2--|
D --9-9-9-9---2-2-2-2----------4-4-4-4-----2-2-2-2--|
G --9-9-9-9---2-2-2-2----------4-4-4-4-----2-2-2-2--|
G --9-9-9-9---2-2-2-2----------4-4-4-4-----2-2-2-2--|
 Stealing by eyes through the windows and back again

D --9-9-9-9--2-2-2-2-------4-4-4-4---2-2-2-2--|
B --9-9-9-9--2-2-2-2-------4-4-4-4---2-2-2-2--|
G --9-9-9-9--2-2-2-2-------4-4-4-4---2-2-2-2--|
D --9-9-9-9--2-2-2-2-------4-4-4-4---2-2-2-2--|
G --9-9-9-9--2-2-2-2-------4-4-4-4---2-2-2-2--|
G --9-9-9-9--2-2-2-2-------4-4-4-4---2-2-2-2--|
 Giving off life to what's otherwise alone


 Outro: (0:37)  [ Repeat to fade ]

   D --9-9-9-9---2-2-2-2-----4-4-4-4----2-2-2-2--|
   B --9-9-9-9---2-2-2-2-----4-4-4-4----2-2-2-2--|
   G --9-9-9-9---2-2-2-2-----4-4-4-4----2-2-2-2--|
1  D --9-9-9-9---2-2-2-2-----4-4-4-4----2-2-2-2--| (x2)
   G --9-9-9-9---2-2-2-2-----4-4-4-4----2-2-2-2--|
   G --9-9-9-9---2-2-2-2-----4-4-4-4----2-2-2-2--|

   D ---6-6h7r6-6-9--7---7-------------------------|
   B --5---------------9-----7--9r7-9--------------|
   G -----------------------------------9-11r9-11--|
2  D ----------------------------------------------|
   G ----------------------------------------------|
   G ----------------------------------------------|
Tap to rate this tab
# A B C D E F G H I J K L M N O P Q R S T U V W X Y Z