Song name
# A B C D E F G H I J K L M N O P Q R S T U V W X Y Z

Matt Pryor - Still Theres A Light tab

-------------------------------------------------------------------------------
		    Still, There's A Light - Matt Pryor
-------------------------------------------------------------------------------
Tabbed by: Sean Hummer
Email: allstar21369@hotmail.com

This is a great song off of Matthew Pryor's (of The Get Up Kids) first solo
album, Confidence Man. I hope I did it justice.


Tuning: Capo on 2nd Fret


Intro/Verse-
e|--2-2-2-2---2-----2----------2-2-2-2---2-----2-----------------------------|
B|--3-3-3-3---3-----3----------3-3-3-3---3-----3-----3-3-3-3-----3-3-3-3-----|
G|--2-2-2-2---2-0h2-2----------0-0-0-0---0-0h2-2-----2-2-2-2-----2-2-2-2-----|
D|0---0^0v0-0---0-------X2-----0-0^0v0---0-0---0---2-2-2^2v2-----0-0-0-0-----|
A|---------------------------2---------2-----------0---------------x-x-x-----|
E|-------------------------------------------------------------3---3^3v3-----|


Chorus-
e|-------------------------------------------------2-2-2-2-------------------|
B|--3-3-3-3-----3-3-3-3-----3-3-3-3--3-3-3-3-3-----3-3-3-3-------------------|
G|--2-2-2-2-----2-2-2-2-----2-2-2-2--2-2-2-2-2-----2-2-2-2-------------------|
D|--0-0-0-0-----0-0-0-0-----2-2-2-2--2-2-2-2-2---0-0-0^0v0-------------------|
A|2-2-2^2v2---2-2-2^2v2---0-0-0^0v0--0-0-0^0v0-------------------------------|
E|---------------------------------------------------------------------------|

e|--2-2-2-2----------------------------|-------------|
B|--3-3-3-3-----3-3-3-3-----3-3-3-3----|--3-3-3-3----|
G|--2-2-2-2-----2-2-2-2-----2-2-2-2----|--2-2-2-2----|
D|--x-x-x-x-----x-x-x-x-----2-2-2-2----|--0-0-0-0--x4|
A|4-4-4^4v4---2-2-2^2v2---0-0-0^0v0----|--x-x-x-x----|
E|-------------------------------------|3-3-3^3v3----|

*I'll update the Bridge soon*


| /  slide up
| \  slide down
| h  hammer-on
| p  pull-off
| ~  vibrato
| +  harmonic
| x  Mute note
Tap to rate this tab
# A B C D E F G H I J K L M N O P Q R S T U V W X Y Z