Song name
# A B C D E F G H I J K L M N O P Q R S T U V W X Y Z

Matt Pryor - Dear Lover tab

-------------------------------------------------------------------------------
		              Dear Lover - Matt Pryor
-------------------------------------------------------------------------------
Tabbed by: Sean Hummer
Email: allstar21369@hotmail.com
Website: myspace.com/nomeansnocorey

Great song, great album.





Tuning: Capo on 2nd fret


Intro-
e|--2-x---------------------------------------------2-2---|
B|3-3-x-3--3-x-3--3-x-3--3------3-3-x-3--3-x-3--3-x-3-3---|
G|2-2-x-2--2-x-0--0-x-0--0------2-2-x-2--2-x-0--0-x-2-2---|
D|0-----0--0-x-0--0-x-0--0------0-0-x-0--0-x-0--0-x-0-0---| x2
A|------0--0-x-0--0-x-0--0--0-1-2-2-x-0--0-x-0--0-x-------|
E|------2--2-x-3--3-x-3--3------------2--2-x-3--3-x-------|





Verse-
e|--2-x---------------------------------------------2-2---|
B|3-3-x-3--3-x-3--3-x-3--3------3-3-x-3--3-x-3--3-x-3-3---|
G|2-2-x-2--2-x-0--0-x-0--0------2-2-x-2--2-x-0--0-x-2-2---|
D|0-----0--0-x-0--0-x-0--0------0-0-x-0--0-x-0--0-x-0-0---| x2
A|------0--0-x-0--0-x-0--0--0-1-2-2-x-0--0-x-0--0-x-------|
E|------2--2-x-3--3-x-3--3------------2--2-x-3--3-x-------|

I'm only skin and bones.
Pierce my heart to atone.
Seems such a reasonable sin.
Mortal man under bones and skin.





Chorus-
e|------------------2-x------------------------------------------|
B|3~------3~------3-3-x-3--3-x---3~--------3~--------------------|
G|0~------0~------2-2-x-2--2-x---0~--------0~--------------------|
D|0~--------------0-----0--0-x---0~------0-----------------------|
A|0~--------------------0--0-x---0~------------------------------|
E|3~--------------------2--2-x-2-3~------------------------------|

Dear lover, Don't bother me.
Dear lover, Don't bother me.

e|--2-x----------------------------------------------------------|
B|3-3-x-3--3-x-3--3-x-3--3-3--3~-----x-3~---x-3~---x-3~---x-3~---|
G|2-2-x-2--2-x-0--0-x-2--2-2--2~-----x-0~---x-2~---x-2~---x-0~---|
D|0-----0--0-x-0--0-x-2--2-2--0~-----x-2~---x-2~---x-0~---x-0~---|
A|------0--0-x-0--0-x-0--0-0--2~-----x-1~---x-0~---x-0~---x-0~---|
E|------2--2-x-3--3-x------------------------------x-2~---x-3~---|

Could say this with certainty;
hard livings the only way I can get by.





Intro-
e|--2-x---------------------------------------------2-2---|
B|3-3-x-3--3-x-3--3-x-3--3------3-3-x-3--3-x-3--3-x-3-3---|
G|2-2-x-2--2-x-0--0-x-0--0------2-2-x-2--2-x-0--0-x-2-2---|
D|0-----0--0-x-0--0-x-0--0------0-0-x-0--0-x-0--0-x-0-0---| x2
A|------0--0-x-0--0-x-0--0--0-1-2-2-x-0--0-x-0--0-x-------|
E|------2--2-x-3--3-x-3--3------------2--2-x-3--3-x-------|





Verse-
e|--2-x---------------------------------------------2-2---|
B|3-3-x-3--3-x-3--3-x-3--3------3-3-x-3--3-x-3--3-x-3-3---|
G|2-2-x-2--2-x-0--0-x-0--0------2-2-x-2--2-x-0--0-x-2-2---|
D|0-----0--0-x-0--0-x-0--0------0-0-x-0--0-x-0--0-x-0-0---| x2
A|------0--0-x-0--0-x-0--0--0-1-2-2-x-0--0-x-0--0-x-------|
E|------2--2-x-3--3-x-3--3------------2--2-x-3--3-x-------|

Don't say what you want to say.
There's no reason for words to escape.
I'll wait for you if you call.
Pity me and pity us all.





Chorus-
e|------------------2-x------------------------------------------|
B|3~------3~------3-3-x-3--3-x---3~--------3~--------------------|
G|0~------0~------2-2-x-2--2-x---0~--------0~--------------------|
D|0~--------------0-----0--0-x---0~------0-----------------------|
A|0~--------------------0--0-x---0~------------------------------|
E|3~--------------------2--2-x-2-3~------------------------------|

Dear lover, Don't bother me.
Dear lover, Don't bother me.

e|--2-x----------------------------------------------------------|
B|3-3-x-3--3-x-3--3-x-3--3-3--3~-----x-3~---x-3~---x-3~---x-3~---|
G|2-2-x-2--2-x-0--0-x-2--2-2--2~-----x-0~---x-2~---x-2~---x-0~---|
D|0-----0--0-x-0--0-x-2--2-2--0~-----x-2~---x-2~---x-0~---x-0~---|
A|------0--0-x-0--0-x-0--0-0--2~-----x-1~---x-0~---x-0~---x-0~---|
E|------2--2-x-3--3-x------------------------------x-2~---x-3~---|

Could say this with certainty;
hard livings the only way I can get by.






Outro- (Light picking/strumming)
e|2------------------------|
B|3------3------3------3---|
G|2------0------2------0---|
D|0------2------0------0---| x8
A|-------2------0------0---|
E|-------0------2------3---|

All the roles you put on yourself,
send me straight to somebody else.
All the roles you push onto me,
tend to cause infidelity.

All the roles you put on yourself,
send me straight to somebody else.
All the roles you push onto me,
tend to cause infidelity

Dear lover, Don't bother me
Say this with certainty;
Dear lover, Don't bother me;
Say this with certainty. 






| /  slide up
| \  slide down
| h  hammer-on
| p  pull-off
| ~  vibrato
| +  harmonic
| x  Mute note
===============================================================================
Tap to rate this tab
 
# A B C D E F G H I J K L M N O P Q R S T U V W X Y Z