Song name
# A B C D E F G H I J K L M N O P Q R S T U V W X Y Z

Matt Pryor - Im Sorry Stephen tab

-------------------------------------------------------------------------------
		          I'm Sorry Stephen - Matt Pryor
-------------------------------------------------------------------------------
Tabbed by: Sean Hummer
Email: allstar21369@hotmail.com
Website: www.myspace.com/nomeansnocorey


Great song by Matthew Pryor of The Get Up Kids.



Tuning: Capo on 4th fret



Intro/Verse-
e|----------------------------------------|
B|--3---------0---------0---------1---0---|
G|--0-x-0-----2-x-0-----0-x-0-----0-x-0---|
D|----x---------x---------x-2-------x-----|
A|----x-----2---x-----2---x-----3---x-----|
E|3-3-----------------0-------------------|




Pre Chorus-
e|------------------------------------|
B|1~---1p0----------1~---1p0----------|
G|---------0-----------------2--------|
D|-----------2-----------------2------|
A|3~-----------3~---0~-----------0~---|
E|------------------------------------|




Outro-
e|3----3------2----2------0----0--------------------|
B|3-3x-3-3x---0-0x-0-0x---0-0x-0-0x---0-0x-0---0x---|
G|--0x---0x-----2x---2x-----0x---0x---2-0x-2h4-0x---|
D|--0x---0x-----0x---0x-----2x---2x-----0x-----0x---|
A|------------2----2--------2x---2x---3-3x-3---3x---|
E|3----3------------------0----0--------------------|

e|-------------------------------------|
B|3-3x-3---0-0x-0---0x---0-----1-x-0---|
G|0-0x-0---2-0x-2h4-0x---2p0---0-x-0---|
D|--0x-------0x-----2x---2-------x-----|
A|---------2-2x-2---2x---2-----3-x-3---|
E|3----3------------0----0-------------|






| /  slide up
| \  slide down
| h  hammer-on
| p  pull-off
| ~  vibrato
| +  harmonic
| x  Mute note
Tap to rate this tab
# A B C D E F G H I J K L M N O P Q R S T U V W X Y Z