Matt Pryor - When The World Stops Turning chords

Highlighted       Show chord diagrams
-------------------------------------------------------------------------------
		       When The World Stops Turning - Matt Pryor
-------------------------------------------------------------------------------
Tabbed by: Sean Hummer
Email: allstar21369@hotmail.com
Website: www.myspace.com/nomeansnocorey


Awesome song.


Tuning: Capo 2


Chords used-

 D/F#    Gsus2   Asus4   D5/B      A       D      G5      Em7
|-----| |-----| |-----| |-----| |-----| |--2--| |-----| |-----|
|--3--| |--3--| |--3--| |--3--| |--2--| |--3--| |--3--| |--3--|
|--2--| |--2--| |--2--| |--2--| |--2--| |--2--| |--0--| |--0--|
|--0--| |--0--| |--2--| |--0--| |--2--| |--0--| |--0--| |--x--|
|--x--| |--x--| |--0--| |--2--| |--0--| |-----| |--x--| |--2--|
|--2--| |--3--| |-----| |-----| |-----| |-----| |--3--| |--0--|



Intro-
e|-------------------------------------------------|
B|--3--3-3-3-----3--3-3-3-----3--3-3-3-----3---3---|
G|2-2--2-2-2---2-2--2-2-2---2-2--2-2-2-----2---2---|
D|0-0--0-0-0---0-0--0-0-0---2-2--2-2-2-----0---2---|
A|x-x--x-x-x---x-x--x-x-x---0-0--0-0-0-0h2-2-0-0---|
E|2-2--2-2-2---3-3--3-3-3--------------------------|

e|----------------------------------------------------|
B|--3--3-3-3-----3--3-3-3-----3--3-3-3---2-2--2-2-2---|
G|2-2--2-2-2---2-2--2-2-2---2-2--2-2-2---2-2--2-2-2---|
D|0-0--0-0-0---0-0--0-0-0---2-2--2-2-2---2-2--2-2-2---|
A|x-x--x-x-x---x-x--x-x-x---0-0--0-0-0---0-0--0-0-0---|
E|2-2--2-2-2---3-3--3-3-3-----------------------------|



Verse-
D
Sure there are better things,
G5
Could be worse.
D                       G5
My guardian angel wings, might not work.
D                              G5
Money isn't the only thing that comes up short.



Chorus-
D/F#   Gsus2    Asus4   D5/B Asus4
  I'll close any open door,
        D/F#        Gsus2   Asus4  A
I don't want you to see me hurtin'
D/F#   Gsus2        Asus4   D5/B Asus4
I'll be gone come tomorrow morn'
        D/F#            Gsus2   Asus4  A
I'll be back when the world stops turnin'.



Verse-
D
I wish I could fix everything,
G5
And you could sleep.
D
I promise you better things,
G5
You tend to keep,
D
Couldn't give you a diamond ring,
  G5
But love is gold.



Chorus-
D/F#   Gsus2    Asus4   D5/B Asus4
  I'll close any open door,
        D/F#        Gsus2   Asus4  A
I don't want you to see me hurtin'
D/F#   Gsus2        Asus4   D5/B Asus4
I'll be gone come tomorrow morn'
        D/F#            Gsus2   Asus4  A
I'll be back when the world stops turnin'.



Outro-
D/F#   Gsus2        Asus4   D5/B Asus4
I'll be gone come tomorrow morn'
        D/F#            Gsus2   Em7  Gsus2  D
I'll be back when the world stops turnin'.



| PM palm mute
| /  slide up
| \  slide down
| h  hammer-on
| p  pull-off
| ~  let ring
| b  bend
| *  substitute
| x  mute note
| +  harmonic

===============================================================================
Tap to rate this tab
 
# A B C D E F G H I J K L M N O P Q R S T U V W X Y Z