Song name
# A B C D E F G H I J K L M N O P Q R S T U V W X Y Z

Matt Redman - We Shall Not Be Shaken tab

I've already done the chords to this song but here is the tab for
the electric guitar in the song. I'd recommend using a capo on the 3rd fret
simply because if you want to play the chords in the chorus on the electric
it is a lot easier to do that with a capo, look on the chords i submitted
on the other tab for chords. standard tuning. Enjoy :)

Intro + verse:

e-------------------------------|
b-------------------------------|
g-------------------------------|
d----------3---------5----5---5-|
a--3-5-5-5---5-3-3-3---3-3---3--|
E-------------------------------|


Chorus: (if capo on 3rd fret follow chords on the chords sheet i wrote for
         this song)


Bridge: (palm mute to begin with)

e------------------------------------------------------------------|
b------------------------------------------------------------------|
g------------------------------------------------------------------|
d------------------------------------------------------------------|
a-8-8-8-8-8-8-8-8-8-8-8-8-8-8-8-8-8-8-8-8-8-8-8-8-8-8-8-8-8-8-8-8--|
E-5-5-5-5-5-5-5-5-5-5-5-5-5-5-5-5-6-6-6-6-6-6-6-6-6-6-6-6-6-6-6-6--|

e-------------------------------------------------|
b-------------------------------------------------|
g-------------------------------------------------|
d-10-10-10-10-10-10-10-10-10-10-10-10-10-10-10-10-|
a-8--8--8--8--8--8--8--8--8--8--8--8--8--8--8--8--|
E-------------------------------------------------|

e-------------------------------------------------|
b-------------------------------------------------|
g-------------------------------------------------|
d-10-10-10-10-10-10-10-10-10-10-10-10-10-10-10-10-|
a-7--7--7--7--7--7--7--7--7--7--7--7--7--7--7--7--|
E-------------------------------------------------|

(repeat whole sequence til you end bridge)


I hope this simple tab has helped you learn this song because it's a
great song to play with just 2 people, one on the acoustic and one on
the electric. i recommend you looking at the chords for this song if you haven't 
if you want any more christian song tabs let me
know at joelene94@hotmail.co.uk. god bless :).
Tap to rate this tab
# A B C D E F G H I J K L M N O P Q R S T U V W X Y Z