Song name
# A B C D E F G H I J K L M N O P Q R S T U V W X Y Z

Matt Redman - 10000 Reasonsbless The Lord chords

Highlighted       Show chord diagrams
Matt Redman
10,000 Reasons/Bless the Lord
From "10,000 Reasons"
Tabbed by: thechadmiller (Twitter)


Chorus:
          C          G     D/F# Em
Bless the Lord, O my soul, O my soul,
C             G    Dsus4 D
Worship His holy name.
          C        Em   C  D  Em
Sing like never before, Oh my soul
     C              D        C/G - G - C/G - G 
I'll worship Your holy name.


Verse 1:
    C         G           D       Em
The sun comes up, it's a new day dawning;
C            G            D     Em
It's time to sing Your song again.
C            G              D           Em
Whatever may pass, and whatever lies before me,
C2         G                Dsus4 D  G   Gsus4 G 
Let me be singing when the even- ing comes.

Chorus

Verse 2:
       C       G                D        Em
You're rich in love, and You're slow to anger.
      C       G               D         Em
Your name is great, and Your heart is kind.
    C        G                D       Em
For all Your goodness, I will keep on singing;
C2           G              Dsus4 D  G    Gsus4 G 
Ten thousand reasons for my heart to find.

Chorus 2x, then Chorus chords with no vocals

Verse 3:
    C       G           D            Em
And on that day when my strength is failing,
    C         G            D         Em
The end draws near, and my time has come;
C        G                   D        Em
Still my soul will sing Your praise unending:
C2           G                 Dsus4  D  G  Gsus4 G 
Ten thousand years and then fore - - vermore!

Chorus

Outro
     C            D      Em
I'll worship Your holy name  (repeat this way until the very end)
          C            D       G
Yes, I'll worship Your holy name.



Chorus lead for solo 
(played on a mandolin on the album, but play these notes in whatever
position you feel best to make it sound good)
e|------------------------------------------------------|
B|--0-3-5--5-3-0--------------------3-0-----------------|
G|-----------------2-4-2-0------0-0------0-2---4-2------|
D|-------------------------2----------------------------|
A|------------------------------------------------------|
E|------------------------------------------------------|


e|-----------------0--2---------------------------------|
B|--0-3-5--5-3-0---------0------------------------------|
G|--------------------------------0-0--4-2----0---------|
D|----------------------------0h2-----------2-----------|
A|------------------------------------------------------|


I finger pick the main intro/chorus kinda like this to mimic the piano. 
Feel free to pick whatever sounds best and feels most comfortable to you.
    C       G       D      Em       C       G        Dsus4   D 
e|---------------------------------------------------3---3---2---------|
B|--1---3---0---0---------------0---1---3---0---0------2---2-----------|
G|----0---0---0---0-2-4-2-0---0---0---0---0---0---0------2-------------|
D|------2-----------0-------2-----------2------------0-------0---------|
A|--3---------------0---------------3----------------------------------|
E|----------3---------------0---------------3--------------------------|

If you have any input or corrections, check out my blog for more info and 
let me know if you have any songs you need help with. God bless!
Tap to rate this tab
# A B C D E F G H I J K L M N O P Q R S T U V W X Y Z