Song name
# A B C D E F G H I J K L M N O P Q R S T U V W X Y Z

Matt Redman - 10000 Reasons Bless The Lord tab

-------------------------------------------------------------------------------
                     10,000 reasons (Bless the Lord) - Matt Redman
-------------------------------------------------------------------------------
Tabbed by:drewpen18
E-mail:drewpen18@yahoo.com

Tuning: Standard
Key of G
The tab is only used for the chorus.  This is basically the keyboard part on guitar.

e|-----------0----0----------------------------------------------------------|
B|--0---3--------------3----0-----------0---------------------------------3--|
G|----------------------------------2--------2----0--------------------------|
D|------------------------------------------------------2------2-----2-------|
A|---------------------------------------------------------------------------|
E|---------------------------------------------------------------------------|
             C              G         D                 Em       C
 Bless the Lord O      my  soul     Oh  oh oh     my   soul    worship   his
e|---------------------------------0-----0---------------0----2--------------|
B|---0-----------------0-----3----------------3-----0---------------0--------|
G|--------0-----3------------------------------------------------------------|
D|---------------------------------------------------------------------------|
A|---------------------------------------------------------------------------|
E|---------------------------------------------------------------------------|
      G         D  Dsus              C           Em       C    D      Em
    holy      name     sing like   ne- ver     before    O    my    soul
e|---------------------------------------------------------------------------|
B|------------0--------------------------------------------------------------|
G|--0----0---------2-----0---0-----------------------------------------------|
D|---------------------------------------------------------------------------|
A|---------------------------------------------------------------------------|
E|---------------------------------------------------------------------------|
      C             D      G
    worship His   holy   name
Tap to rate this tab
# A B C D E F G H I J K L M N O P Q R S T U V W X Y Z