Song name
# A B C D E F G H I J K L M N O P Q R S T U V W X Y Z

Matt Redman - Let My Words Be Few tab

Verse
e|---------------------------------------------------------------------------|
B|-8-10-12-8-10-8---8-7-5-3-5-7-8---3-8-10-12-10-12-10-8---------------------|
G|---------------------------------------------------------------------------|
D|---------------------------------------------------------------------------|
A|---------------------------------------------------------------------------|
E|---------------------------------------------------------------------------|

e|---------------------------------------------------------------------------|
B|-8-10-5-7-8-10-5-7-8-------------------------------------------------------|
G|---------------------------------------------------------------------------|
D|---------------------------------------------------------------------------|
A|---------------------------------------------------------------------------|
E|---------------------------------------------------------------------------|

chorus
e|---------------------------------------------------------------------------|
B|-8-10-12-15-13-12-12---8-10-12-15-13-12-12--5-7-8-12-10-12-8---------------|
G|---------------------------------------------------------------------------|
D|---------------------------------------------------------------------------|
A|---------------------------------------------------------------------------|
E|---------------------------------------------------------------------------|

e|---------------------------------------------------------------------------|
B|-8-10-5-7-8-10-5-7-8-------------------------------------------------------|
G|---------------------------------------------------------------------------|
D|---------------------------------------------------------------------------|
A|---------------------------------------------------------------------------|
E|---------------------------------------------------------------------------|
Tap to rate this tab
# A B C D E F G H I J K L M N O P Q R S T U V W X Y Z