Song name
# A B C D E F G H I J K L M N O P Q R S T U V W X Y Z

Matt Ryczek - Goodbye tab

-------------------------------------------------------------------------------
			     goodbye - matt ryczek
-------------------------------------------------------------------------------
Tabbed by:m spears
Email:mrstraighty@yahoo.com
first try at a tab. i've looked all over for this and only found a partial that helped 
place the rest of it.
Tuning:standard, capo at 1, tab relative to capo
repeats through verse
e|----0-----0-----0-----0-----0-----0------------------------------------------------|
B|---2-----2-----2-----2-----2-----2-------------------------------------------------|
G|--1-----1-----1-----1-----1-----1--------------------------------------------------|
D|-0-----0-----0-----0-----0-----0---------------------------------------------------|
A|4-----4-----2-----2-----0-----0----------------------------------------------------|
E|-----------------------------------------------------------------------------------|
until "dont wait up for me tonight" and "everthing's gonna be alright" these shapes are 
strummed for "lights go out, people shout...."
e|----2---2----2----2----2----2------------------------------------------------------|
B|---5---5----5----5----5----5-------------------------------------------------------|
G|--4---4----4----4----4----4--------------------------------------------------------|
D|-2---2-----------------------------------------------------------------------------|
A|-----------5----5----4----4--------------------------------------------------------|
E|-----------------------------------------------------------------------------------|
 back to start at "cause i wont be coming home" and "i just wanted you to know"
e|------0----0-----0-----0----0----0-------------------------------------------------|
B|-----2----2-----2-----2----2----2--------------------------------------------------|
G|---1-----1-----1-----1----1----1---------------------------------------------------|
D|--0-----0-----0-----0----0----0----------------------------------------------------|
A|-4-----4-----2-----2----0----0-----------------------------------------------------|
E|-----------------------------------------------------------------------------------|
http://www.mattryczek.com/
this is a 911 tribute song that i've seen mistakenly attributed to john mayer
Tap to rate this tab
 
# A B C D E F G H I J K L M N O P Q R S T U V W X Y Z