Song name
# A B C D E F G H I J K L M N O P Q R S T U V W X Y Z

Matt Simons - Pieces tab

Matt Simons - Pieces


Tuning = Standard


Intro

e|----------------------------------------------------|
B|----6-6-------6---------------6-6--------6----------|
G|----7-7-------7---10----------7-7--------7---10-----|
D|----8-8-------8---10-8p-------8-8--------8---10-8p--|
A|--6---------------8-------5-6----------------8------|
E|----------5-6------------------------5-6------------|


verse 1

e|-------------------------| 3x
B|----6-6-------6----------|
G|----7-7-------7---10-----|
D|----8-8-------8---10-8p--|
A|--6---------------8------|
E|----------5-6------------|


The moment we meet Notice the sparks start to fly
Turn into heat It's gonna get cute you and I
Comes time to leave Unaware hours gone by


e|-----------------------------------------|
B|-----------------------------------------|
G|--7-8h--8----8----------10--------10-----|
D|--8-----8----8----------10--------10-----|
A|--6----------6-----6/8------6/8-------5--|
E|-----------------------------------------|

Done the best to stay

e|-----------------------------|
B|-----------------------------|
G|--7-8h--8----8-----10---10---|
D|--8-----8----8-----10---10---|
A|--6----------6-----8----8----|
E|-----------------------------|

Out of my own way


Verse 2

e|----------------------------| 3x
B|----6-6-------6-------------|
G|----7-7-------7---10--(10)--|
D|----8-8-------8---10--(10)--|
A|--6---------------8---(8)---|
E|----------5-6---------------|


Starts with a phone call Sided with caution, three day wait
Certain we'll soon fall Not gonna leave this up to fate
Picture together All of my problems you erase

e|-----------------------------------------|
B|-----------------------------------------|
G|--7-8h--8----8----------10--------10-----|
D|--8-----8----8----------10--------10-----|
A|--6----------6-----6/8------6/8-------5--|
E|-----------------------------------------|

I don't hear a peep

 F
e|-----------------------------|
B|-----------------------------|
G|--7-8h--8----8-----10---10---|
D|--8-----8----8-----10---10---|
A|--6----------6-----8----8----|
E|-----------------------------|

Guess I'll get some sleep



Chorus

e|-----------------------------|3X
B|----6-6----------------------|
G|----7-7-------7-------10-10--|
D|----8-8-------8-------10-10--|
A|--6-----------8----8---------|
E|----------5-6----6-----------|

Every time I drop, into pieces over nothing
At the top, with belief that was something
But its not, lie awake and I am wasting time here


e|-----------------------------------------|
B|-----------------------------------------|
G|--7-8h--8----8----------10--------10-----|
D|--8-----8----8----------10--------10-----|
A|--6----------6-----6/8------6/8-------5--|
E|-----------------------------------------|

Lying to my mind



e|-----------------------------|
B|-----------------------------|
G|--7-8h--8----8-----10---10---|
D|--8-----8----8-----10---10---|
A|--6----------6-----8----8----|
E|-----------------------------|

lying to my mind



verse 3

e|-------------------------| 3x
B|----6-6-------6----------|
G|----7-7-------7---10-----|
D|----8-8-------8---10-8p--|
A|--6---------------8------|
E|----------5-6------------|


The very next weekend My call finally gets returned
My will has been weakened You'd think that by now I'd have learned
She says we can be friends Bringing about my concern


e|-----------------------------------------|
B|-----------------------------------------|
G|--7-8h--8----8----------10--------10-----|
D|--8-----8----8----------10--------10-----|
A|--6----------6-----6/8------6/8-------5--|
E|-----------------------------------------|


Never had control

e|-----------------------------|
G|-----------------------------|
B|--7-8h--8----8-----10---10---|
D|--8-----8----8-----10---10---|
A|--6----------6-----8----8----|
E|-----------------------------|


Back to feeling low



Chorus

E|-----------------------------|
B|----6-6----------------------|
G|----7-7-------7-------10-10--|
D|----8-8-------8-------10-10--|
A|--6-----------8----8---------|
E|----------5-6----6-----------|

Every time I drop, into pieces over nothing
At the top, with belief that was something
But its not, lie awake and I am wasting time here


e|-----------------------------------------|
B|-----------------------------------------|
G|--7-8h--8----8----------10--------10-----|
D|--8-----8----8----------10--------10-----|
A|--6----------6-----6/8------6/8-------5--|
E|-----------------------------------------|

Lying to my mind



e|-----------------------------|
B|-----------------------------|
G|--7-8h--8----8-----10---10---|
D|--8-----8----8-----10---10---|
A|--6----------6-----8----8----|
E|-----------------------------|

lying to my mind



Bridge

e|------------------------------------------------------------------|
B|---------------------------------------8---10-10--9---8--8--------|
G|--7---7--------------------8----7-5----7---10-10--8---8--8---8-8--|
D|--8---8----10-10---10-10---6----7-7----8---10-10--9---8--8---8-8--|
A|--6---8----10-10---10-10---8----5-5----6---8--8---7---6------6-6--|
E|------6----8--8----8--8----6--------------------------------------|

There is a so fine line
Built to give way by design
You walk at your own risk
of being left out in cold
Or so I've been told
Guess I haven't been told, oh no



Chorus

e|-----------------------|
B|----6-6----------------|
G|----7-7----------------|
D|----8-8----------------|
A|--6---------------8----|
E|------------6----------|


Every time I drop, into pieces over nothing
At the top, with belief that was something
But its not, lie awake and I am wasting time here


e|-----------------------------------------|
B|-----------------------------------------|
G|--7-8h--8----8----------10--------10-----|
D|--8-----8----8----------10--------10-----|
A|--6----------6-----6/8------6/8-------5--|
E|-----------------------------------------|

Lying to my mind



e|-----------------------------|
B|-----------------------------|
G|--7-8h--8----8-----10---10---|
D|--8-----8----8-----10---10---|
A|--6----------6-----8----8----|
E|-----------------------------|

lying to my mind



Repeat Chorus

e|-----------------------------|
B|----6-6----------------------|
G|----7-7-------7-------10-10--|
D|----8-8-------8-------10-10--|
A|--6-----------8----8---------|
E|----------5-6----6-----------|

Every time I drop, into pieces over nothing
At the top, with belief that was something
But its not, lie awake and I am wasting time here


E|-----------------------------------------|  3x
B|-----------------------------------------|
G|--7-8h--8----8----------10--------10-----|
D|--8-----8----8----------10--------10-----|
A|--6----------6-----6/8------6/8-------5--|
E|-----------------------------------------|

Lying to my mind



e|-----------------------------|
B|-----------------------------|
G|--7-8h--8----8-----10---10---|
D|--8-----8----8-----10---10---|
A|--6----------6-----8----8----|
E|-----------------------------|

lying to my mind


-fin
Tap to rate this tab
 
# A B C D E F G H I J K L M N O P Q R S T U V W X Y Z