Song name
# A B C D E F G H I J K L M N O P Q R S T U V W X Y Z

Matt Skiba - The City That Day tab

This is the exact way Matt plays.  Play the main riff once for every line of verse, then
the outro at the end.  Pretty simple.  Remember to tune a half step down.  The
may not be 100%, but is extremely close; just listen to the song.  E-mail 
or aim q67 with comments, questions, etc.  Please rate and comment. Thank you.

Main riff
eb|------------------------------------------|
Bb|------------------------------------------|
Gb|--7-7 77----------------------------4-4-4-|
Db|--7-7-77--6-6-7-7-7-6-6-6-6-6-6-7-4-4-4-4-|
Ab|--5-5-55--7-7-7-7-7-7-7-0-0-0-0-0-2-2-2-2-|
Eb|--0-0-00--0-0-0-0-0-0-0-0-0-0-0-0-0-0-0-0-|

Outro progression 1

eb|--0--0-------|
Bb|--0--0-------|
Gb|--1--2--6--4-| Play three times
Db|--2--2--6--4-|
Ab|--2--2--4--2-|
Eb|--0--0--0--0-|

Outro Progression 2

eb|--0--0--------------0|
Bb|--0--0--------------0|
Gb|--1--2--6--4--1--4--1| Play three times
Db|--2--2--6--4--2--4--2|
Ab|--2--2--4--2--2--2--2|
Eb|--0--0--0--0--0--0--0|


Saw you standing there holding my heart
Too many drinks pulled the words apart
But I got your name remembered it dumbfounded I'm dumb as shit

I'm just glad that I went to the city that day

Saw you standing there all alone
For some reason you were holding two coats
I asked you 'do you need a hand?'Ya said 'No thanks, I've got other plans'

I'm just glad that I went to the city that day

And I saw him wake up on the sidewalk
His next drink was the topic of talk
He said 'give me something quick and sweet my whole life I've lived on the street'

I'm just glad that I went
to the city that day
to the city that day
to the city that day
to the city that day
Tap to rate this tab
# A B C D E F G H I J K L M N O P Q R S T U V W X Y Z