Song name
# A B C D E F G H I J K L M N O P Q R S T U V W X Y Z

Matt Skiba - You Didnt Feel A Thing tab

------------------------------------
Matt Skiba - You Didn't Feel A Thing
------------------------------------

Tuning: Drop D (DADGBE)
Tabbed by: Blinkaholic
Email: josh.americanidiot@gmail.com

Tabbed entirely by ear.


|-----------------------------------------------------------------|\
|-----------------------------------------------------------------| \
|-----------------------------------------------------------------|  \
|---7---7---5---4---5---4---2---0---7---7---5---4---5---4---2---0-|   \
|-----------------------------------------------------------------|    \
|-0---0---0---0---0---0---0---0---0---0---0---0---0---0---0---0---|     \
                                                                         |x4
|-----------------------------------------------------------------|     /
|-----------------------------------------------------------------|    /
|-----------------------------------------------------------------|   /
|---7---7---5---4---5---4---2---2---7---7---5---4---5---4---4---2-|  /
|-0---0---0---0---0---0---0---0-----------------------------------| /
|---------------------------------5---5---5---5---5---5---0---0---|/

|-10-----------------------10-10----------------------|\
|------10-10---8-8---7-7-----------10-10---8-8---7-7--| \
|-----------------------------------------------------|  \
|-----------------------------------------------------|   \
|-----------------------------------------------------|    \
|-----------------------------------------------------|     \
                                                             |x2
|-10-10-----------------------------------------------|     /
|---------10-10---8-8---7-7---8-8---7-7---5-5---3-3---|    /
|-----------------------------------------------------|   /
|-----------------------------------------------------|  /
|-----------------------------------------------------| /
|-----------------------------------------------------|/

|-----------------------------------------------------------------|\
|-----------------------------------------------------------------| \
|-----------------------------------------------------------------|  \
|---7---7---5---4---5---4---2---0---7---7---5---4---5---4---2---0-|   \
|-----------------------------------------------------------------|    \
|-0---0---0---0---0---0---0---0---0---0---0---0---0---0---0---0---|     \
                                                                         |x4
|-----------------------------------------------------------------|     /
|-----------------------------------------------------------------|    /
|-----------------------------------------------------------------|   /
|---7---7---5---4---5---4---2---2---7---7---5---4---5---4---4---2-|  /
|-0---0---0---0---0---0---0---0-----------------------------------| /
|---------------------------------5---5---5---5---5---5---0---0---|/


|-10-----------------------10-10----------------------|\
|------10-10---8-8---7-7-----------10-10---8-8---7-7--| \
|-----------------------------------------------------|  \
|-----------------------------------------------------|   \
|-----------------------------------------------------|    \
|-----------------------------------------------------|     \
                                                             |x2
|-10-10-----------------------------------------------|     /
|---------10-10---8-8---7-7---8-8---7-7---5-5---3-3---|    /
|-----------------------------------------------------|   /
|-----------------------------------------------------|  /
|-----------------------------------------------------| /
|-----------------------------------------------------|/

END
Tap to rate this tab
# A B C D E F G H I J K L M N O P Q R S T U V W X Y Z