Song name
# A B C D E F G H I J K L M N O P Q R S T U V W X Y Z

Matt Skiba - Demons Away tab

Matt Skiba - Demons Away
Tuning: Normal EADGbe

This is an amazing song, and pretty simple to play.  You dont have to play the open E 
the intro and verse, but I think it goves a good sound to it.  I've tabbed out the 
pattern with bits of the lyrics to make it easier to play.  Enjoy!


Chords Used
e|---------------------------|
b|---------------------------|
G|-9--9--6-----------1-------|
D|-9--9--6--7--9--6--2--7--4-|
A|-7--6--4--7--9--6--2--7--2-|
E|----------5--7--4--0--4--2-|

Intro - Piano arranged for guitar (can be split into 3 sections)
        Listen to the song for when to play this part

e|------------------------|------------------------|
b|-12-12--10-10--9-9--7-7-|-12-12--10-10--9-9--5-5-|
G|------------------------|------------------------|
D|------------------------|------------------------|
A|------------------------|------------------------|
E|------------------------|------------------------|

e|---------------------------------------|
b|-12-12--10-10--9-9--7-7--5-5-4-4/2-2-0-|
G|---------------------------------------|
D|---------------------------------------|
A|---------------------------------------|
E|---------------------------------------|

Intro - Guitar
e|------------------------------------------------------------------|
b|------------------------------------------------------------------|
G|-9999999999999999--6666666666666666-------------------------------|
D|-9999999999999999--6666666666666666--77777777777777--999999999~---|
A|-7777777777776666--4444444444444444--77777777777777--999999999~---|
E|-0000000000000000--0000000000000000--55555544445555--777777777~---|

Verse 1

e|------------------------------------------------------------------|
b|------------------------------------------------------------------|
G|-9999999999999999--6666666666666666-------------------------------|
D|-9999999999999999--6666666666666666--77777777777777--999999999----|
A|-7777777777776666--4444444444444444--77777777777777--999999999----|
E|-0000000000000000--0000000000000000--55555544445555--777777777----|
  alone..      dark alone..            hiding..        your soul...


e|------------------------------------------------------------------|
b|------------------------------------------------------------------|
G|-9999999999999999--6666666666666666-------------------------------|
D|-9999999999999999--6666666666666666--77777777777777--999999999----|
A|-7777777777776666--4444444444444444--77777777777777--999999999----|
E|-0000000000000000--0000000000000000--55555544445555--777777777----|
   closet..          bed..             window..        head

Chorus

w|------------------------------------------------------------|
b|------------------------------------------------------------|
G|--------------------11111111--------------------------------|
D|---6666666677777777-22222222-99999999-77777777-9999-7777----|
A|---6666666677777777-22222222-99999999-77777777-9999-7777----|
E|---4444444455555555-00000000-77777777-55555555-7777-5555----|
     over..           safe..      ive.. skelet..      demons


e|------------------------------------|
b|------------------------------------|
G|-999999999999999999999999-----------|
D|-999999999999999999999999-9999-7777-|
A|-777777777777777677777777-9999-7777-|
E|-000000000000000000000000-7777-5555-|
  away..

Verse 2

e|------------------------------------------------------------------|
b|------------------------------------------------------------------|
G|-9999999999999999--6666666666666666-------------------------------|
D|-9999999999999999--6666666666666666--77777777777777--999999999----|
A|-7777777777776666--4444444444444444--77777777777777--999999999----|
E|-0000000000000000--0000000000000000--55555544445555--777777777----|
   scared      dark  scared..          -one will..     care..


e|------------------------------------------------------------------|
b|------------------------------------------------------------------|
G|-9999999999999999--6666666666666666-------------------------------|
D|-9999999999999999--6666666666666666--77777777777777--999999999----|
A|-7777777777776666--4444444444444444--77777777777777--999999999----|
E|-0000000000000000--0000000000000000--55555544445555--777777777----|
   find out..  day   comes             of you       my love..

Chrorus

e|------------------------------------------------------------|
b|------------------------------------------------------------|
G|--------------------11111111--------------------------------|
D|---6666666677777777-22222222-99999999-77777777-9999-7777----|
A|---6666666677777777-22222222-99999999-77777777-9999-7777----|
E|---4444444455555555-00000000-77777777-55555555-7777-5555----|
     over..           safe..      ive.. skelet..      demons


e|-----------------------------------|
b|-----------------------------------|
G|-999999999999999999999999----------|
D|-999999999999999999999999-99997777-|
A|-777777777777777677777777-99997777-|
E|-000000000000000000000000-77775555-|
  away..


Interlude

e|-----------------------------------------|
b|-----------------------------------------|
G|---------------------11111111------------|
D|---777777777777-4444-22222222-44444444---|
A|---777777777777-2222-22222222-22222222---|
E|---555555554444-2222-00000000-22222222---|
     baby..       tell crying..

e|-----------------------------------------|
b|-----------------------------------------|
G|---------------------11111111------------|
D|---777777777777-4444-22222222-44444444---|
A|---777777777777-2222-22222222-22222222---|
E|---555555554444-2222-00000000-22222222---|
     baby..  know ly.. me..

e|-----------------------------------------|
b|-----------------------------------------|
G|---------------------11111111------------|
D|---777777777777-4444-22222222-44444444---|
A|---777777777777-2222-22222222-22222222---|
E|---555555554444-2222-00000000-22222222---|
     baby..       tell sleep..

e|-----------------------------------------|
b|-----------------------------------------|
G|---------------------11111111------------|
D|---777777777777-4444-22222222-44444444---|
A|---777777777777-2222-22222222-22222222---|
E|---555555554444-2222-00000000-22222222---|
     baby..  bel. been before

Chorus

e|------------------------------------------------------------|
b|------------------------------------------------------------|
G|--------------------11111111--------------------------------|
D|---6666666677777777-22222222-99999999-77777777-9999-7777----|
A|---6666666677777777-22222222-99999999-77777777-9999-7777----|
E|---4444444455555555-00000000-77777777-55555555-7777-5555----|
     over..           safe..      ive.. skelet..      demons


e|-----------------------------------|
b|-----------------------------------|
G|-999999999999999999999999----------|
D|-999999999999999999999999-99997777-|
A|-777777777777777677777777-99997777-|
E|-000000000000000000000000-77775555-|
  away..

Ending

e|------------------------------------------------------------|
b|------------------------------------------------------------|
G|--------------------11111111--------------------------------|
D|---6666666677777777-22222222-99999999-77777777-9999-7777----|
A|---6666666677777777-22222222-99999999-77777777-9999-7777----|
E|---4444444455555555-00000000-77777777-55555555-7777-5555----|
     over..           safe..      ive.. skelet..      demons..


e|--------------------------------------|
b|--------------------------------------|
G|-999999999999999999999999----------9~-|
D|-999999999999999999999999-99997777-x~-|
A|-777777777777777677777777-99997777-7~-|
E|-000000000000000000000000-77775555-0~-|
  away...
----------------

Any questions, corrections, hatemail, etc, leave me a message!
buriedinspace@hotmail.com
Tap to rate this tab
 
# A B C D E F G H I J K L M N O P Q R S T U V W X Y Z