Guitaretab - guitar tabs
Song name
# A B C D E F G H I J K L M N O P Q R S T U V W X Y Z

Matt Thien - Hey Hey tab

----------------------------------------------------------
			     HEY HEY  Matt Thien
----------------------------------------------------------
Tabbed by: Matt Thien
Email: matt@mattthien.com

Tuning: D (1 whole step down from normal E tuning)

MAIN RIFF:

I throw some different variations of this riff down depending
on my mood, but here is the basic riff throughout the whole song.
It will get you by for sure!
[ Tab from: http://www.guitaretab.com/m/matt-thien/175924.html ]
d|--------------------------------------------------------|
A|--------------------------------------------------------|
F|---6-x----6-x----4-x----4--5----6-x---x---6----4-x------|
C|---6-x----6-x----4-x----4--5----6-x---x---6----4-x------|
G|-4---x---------2---x---2--3---4---x-4-x------2---x------|
D|--------5---x---------------------------5-----------4-5-|

CHORUS:

E, F#, A, E

d|-----2--5-----------------------------------------------|
A|-----2-5-----------------------------------------------|
F|--1--3--6--1--------------------------------------------|
C|--2--4--7--2--------------------------------------------|
G|--2--4--7--2--------------------------------------------|
D|-----2--5-----------------------------------------------|


| /  slide up
| \  slide down
| h  hammer-on
| p  pull-off
| ~  vibrato
| +  harmonic
| x  Mute note
==========================================================
Related for Hey Hey tab