Song name
# A B C D E F G H I J K L M N O P Q R S T U V W X Y Z

Matt Travis - The Decent tab

-------------------------------------------------------------------------------
			     The Decent - Matt Travis
-------------------------------------------------------------------------------
Tabbed by: Matt Travis (Writer)
Email:Musclemusicmatt@live.co.uk

Tuning:Standard

Riff One: Acoustic
e|-----------------------------------------------------------------------------|
B|8--------7---5----7----------------------------------------------------------|
G|-----------------------------------------------------------------------------|
D|-----------------------------------------------------------------------------|
A|7--------5---3----5----------------------------------------------------------|
E|----------------------------------play four times ---------------------------|


e|--------------------------------------------------------------------------|
B|8----------8--7-------7--------7--6v------5--------4---3V-----------------|
G|-------9---------------------7-----------------5--------------------------|
D|----9---------------------7-----------------5-----------------------------|
A|7---------------------5-------------------3-------------------------------|
E|--------------------------------------------------------------------------|
late on new years ever, after wine and tea, mama said to me,
Son I've got to go,    You I will not know, Cancer has got me,
Please son do not cry, Everyone must die,  Please move on and fly,

please do not forget, The enf that I've met, I will always be,
Livin' in your dreams, Saving you from things, But I now must go,

Chorus:
First four lines played to riff one:
Mama, don't go
Mama don't leave,
Mama need you,
Mama is gone,

e|--------------------------------------------------------------------------|
B|8----3----7----5----------------------------------------------------------|
G|--------------------------------------------------------------------------|
D|--------------------------------------------------------------------------|
A|7----2----5----3----------------------------------------------------------|
E|--------------------------------------------------------------------------|
Hold  on  stay strong
Make  me proud son
please boy move on
Save him some  one
Save him some  one

Verse Two riff: Electric
Same as teh Verse One AcoustiC:
Please will you not go, Hell to natures vote, come she needs to sleep,
Later she is gone, Then I must hold on, Part off me has gone,
Now in ten years time, I still ahve my pride, Mama's in my mind,

I will not forget, the deatht aht she met, I still loose my breath,
Please my lovin wife, Do not feel my strife, There is no repent

Chorus: This Timme Electric

Solo: Electric
e|--------------------------------------------------------------------------|
B|12~14-15-14-12------------------------------------------------------------|
G|--------------14~-14~-16-13-14--------------------------------------------|
D|--------------------------------------------------------------------------|
A|--------------------------------------------------------------------------|
E|--------------------------------------------------------------------------|

Note To Reader: I wrote this song almost by accident and themed it around the sadest 
i could think of which was a boy losing his mother to cancer. This song alos has an 8 
solo that I couldn't really have time to tab, unless you are desperate for this song. Enjoy.
************************************

| /   slide up
| \   slide down
| h   hammer-on
| p   pull-off
| ~   vibrato
| +   harmonic
| x   Mute note
| b   Bend
| pb  Pre-bend
| br  Bend release
| pbr Pre-bend release
| brb Bend release bend

************************************
Tap to rate this tab
# A B C D E F G H I J K L M N O P Q R S T U V W X Y Z