Song name
# A B C D E F G H I J K L M N O P Q R S T U V W X Y Z

Matt Travis - Bad Girl tab

-------------------------------------------------------------------------------
			     She's A Bad Girl - Third Time Lucky
-------------------------------------------------------------------------------
Tabbed by: Matt Travis (Band Member)
Email:

Tuning: Standard

Intro:
e|---------------------------------------------------------------------------|
B|---------------------------------------------------------------------------|
G|----------------12---------12-------------------------------15-12--15-12---|
D|15-12/7----15-12---15-17------15-17-12-15-17--15--17-------------12--------|
A|-------8/14-------------17------------------17-----------------------------|
E|---------------------------------------------------------------------------|

e|---------------------------------------------------------------------------|
B|----------------13/3-------------------------------------------------------|
G|12/15/17~~--17--12/2-------------------------------------------------------|
D|------------17--0//0-------------------------------------------------------|
A|---------------------------------------------------------------------------|
E|---------------------------------------------------------------------------|

(2) Play second time around only in verse
Verse:
e|Pt1-----------------------------|Pt2---------|Pt3--------------------------|
B|--------------------------------|------------|-----------------------------|
G|------------2-------------------|-4477--7799-|------2----------------------|
D|4444----2224-4---4444----2-4/7-4|-4477--7799-|--4-24-4--7------------------|
A|----4444-------------4444-------|-2255--5577-|---4-------7-5(7)------------|
E|---------------------------x2---|------------|------------7----------------|

Continually play part 3 through the lyrics, then play pt 2 as they end and enter chorus.
************************************

| /   slide up
| \   slide down
| h   hammer-on
| p   pull-off
| ~   vibrato
| +   harmonic
| x   Mute note
| b   Bend
| pb  Pre-bend
| br  Bend release
| pbr Pre-bend release
| brb Bend release bend

************************************
Tap to rate this tab
# A B C D E F G H I J K L M N O P Q R S T U V W X Y Z