Song name
# A B C D E F G H I J K L M N O P Q R S T U V W X Y Z

Matt Weddle - Hey Ya tab

-------------------------------------------------------------------------------
                              Hey Ya (Acoustic)
                                 Matt Weddle
-------------------------------------------------------------------------------

Tuning: Standard
Key: E Major

This is how you play the song without a capo.

Here are the chords:

e|------------------|
B|--9-------4---5---|
G|--9---6---4---6---|
D|--9---7---4---6---|
A|--7---7---2---4---|
E|------5-----------|

The rhythm is easy, just listen to the song.
Tap to rate this tab
 
# A B C D E F G H I J K L M N O P Q R S T U V W X Y Z