Guitaretab - guitar tabs
Song name
# A B C D E F G H I J K L M N O P Q R S T U V W X Y Z

Matt Wertz - Honest Man tab

This is a really great song and i wanted to learn it for some time now, so did my best 
tab it by watching a video on youtube.  Hope it helps!

Intro Riff
E||--x-----------------7--------x--------------------------3----------3------|
B||--8-------10-----------------x--------------------------3----------3------|
G||--7--------------------------7--------9--------7--------5----------0------|
D||--9--------------------------7--------------------------5----------0------|
A||--7--------------------------5--------------------------3----------x------|
E||--7--------------------------5--------------------------3----------3------|


E||--7--------------------------x----------------------------3---------------|
B||--8-------10------8----------x----7-----5-----3-----------3---------------|
G||--7--------------------------7----------------------------0---------------|
D||--9--------------------------7----------------------------0h2p0-----------|
A||--7--------------------------5----------------------------3---------------|
E||--7--------------------------5--------------------------------------------|
[ Tab from: http://www.guitaretab.com/m/matt-wertz/101348.html ]
Verse
E||----3------------3---------------3--------------------2------------------|
B||----3------------3---------------3--------------------3------------------|
G||----0------------2---------------0--------------------2------------------|
D||----0------------0---------------0--------------------0------------------|
A||----x------------0---------------2---------------------------------------|
E||----3------------3---------------3---------------------------------------|

"Baby you donít need me, youíre perfect itís true, but Iíve got a love, strong enough for you"

"Iím an honest man, making honest way, I donít got no treasure, to get in my way"

"I wonít try to be, something I ainít, you cant trace my bloodlines, to princes or saints"

Chorus

E||----3------------------------------------3-----3----------2----------------|
B||----3------------------------------------3-----3----------3----------------|
G||----0------------0------0-------0--------0-----0----------2----------------|
D||----0------------0------0-------0--------2-----0----------0----------------|
A||----x------------x------x-------x--------2-----2---------------------------|
E||----3------------3------5-------7--------------3---------------------------|

"If you were my woman,  and    I     was     your      man,    Iíd give you my love, its 
that I have"

(Repeat from the top after the first two verses, but after the third play the second 
of the intro then the outro)

Outro

E||-----------------------1-----|
B||-----------------------0-----|
G||-----------------------0-----|
D||----0-----0-----0------0-----|
A||----3-----2-----0------2-----|
E||----x-----x-----x------3-----|

Enjoy! (hopefully)
Related for Honest Man tab