Song name
# A B C D E F G H I J K L M N O P Q R S T U V W X Y Z

Matt Wertz - With You Tonight tab

-------------------------------------------------------------------------------
			     WITH YOU TONIGHT - Matt Wertz
-------------------------------------------------------------------------------
Tabbed by: mlong
Email:long.myles@gmail.com

Tuning:EADGBe
I think in the studio recording he tunes his guitar 1/2 step down. so move 
everything up one fret to play with the recording.

the chord progression is Bm7, G7, D7, A7
                                    
e|------------------------------------------------------------------------|
B|----7--7-----7--7--7------3--3-----3--3--3------10--10------10--10--10--|
G|----7--7-----7--7--7------4--4-----4--4--4------11--11------11--11--11--|
D|------------------------------------------------------------------------|
A|------------------------------------------------------------------------|
E|-7--------7------------3--------3-----------10----------10--------------|

e|----------------|
B|----5--5-----5--|
G|----6--6-----6--|
D|----------------|
A|----------------|
E|-5--------5-----|


| /  slide up
| \  slide down
| h  hammer-on
| p  pull-off
| ~  vibrato
| +  harmonic
| x  Mute note
===============================================================================
Tap to rate this tab
 
# A B C D E F G H I J K L M N O P Q R S T U V W X Y Z