Song name
# A B C D E F G H I J K L M N O P Q R S T U V W X Y Z

Matt Wertz - Marriane chords

Highlighted       Show chord diagrams
Hey guys. saw matt's Marriane video on youtube and thought this was a more accurate 
than Graham child's.
Matt capo's on 3 in the video, but it only sounds in unison when played along with at 
2. hope you like it

Marriane
Matt Wertz

Tuning: Standard
Capo 2 or 3

Intro, Verse, and Chorus
               california's....          now i got my mind...
       e:-XXX--0-0--0---0-0--0-----------0--0---0-0-0----------------:
       B:-XXX--2-2--2h3-3-3--2-----------2--2h3-3-3-2----------------:
       G:-XXX--2-2--2---2-2--2-----------2--2---2-2-2----------------:
       D:-XXX--2-2--2---2-2--2-----------X--X---X-X-X----------------:
       A:-XXX--0-0--0---0-0--0-----------2--2---2-2-2----------------:
       E:-XXX--X-X--X---X-X--X-----------X--X---X-X-X----------------:
          the open air and you on highway one
       e:-X-X--2h3-3-3--X----------0-0--0---0-0--0-------------------:
       B:-3-3--3---3-3--3----------2-2--2h3-3-3--2-------------------:
       G:-2-2--2---2-2--2----------2-2--2---2-2--2-------------------:
       D:-0-0--0---0-0--0----------2-2--2---2-2--2-------------------:
       A:-0-0--0---0-0--0----------0-0--0---0-0--0-------------------:
       E:-X-X--X---X-X--0----------X-X--X---X-X--X-------------------:

Bridge Chords: E, (X442000), Asus, A
Tap to rate this tab
# A B C D E F G H I J K L M N O P Q R S T U V W X Y Z