Song name
# A B C D E F G H I J K L M N O P Q R S T U V W X Y Z

Matt Wertz - Marianne tab

Marianne
Artist: Matt Wertz
Album: Twenty Three Places

Contributor: Daniel Schnall

Capo: 2 (all chords relative to capo)

Intro/Verse
e|------------------------------------------------------|
B|----2h3-3-3p2----2h3-3-3p2----2h3-3-3p2----2h3-3-3p2--|
G|----2---2-2------2---2-2------2---2-2------2---2-2----|
D|----0---0-0------0---0-0----0-----0-0------0---0-0----|
A|--0------------2-------------------------0------------|
E|------------------------------------------------------|

Bridge ("Won't you come back")
e|---0---0---2-----------------0---0---2---2---|
B|---0---0---3---2-2h3-3-3p2---0---0---3---3---|
G|---1---2---2---2-2---2-2-----1---2---2---2---|
D|---2---4---0---0-----0-0-----2---4---0---0---|
A|---2---4---------------------2---4-----------|
E|---0-------------------------0---------------|
Tap to rate this tab
 
# A B C D E F G H I J K L M N O P Q R S T U V W X Y Z