Song name
# A B C D E F G H I J K L M N O P Q R S T U V W X Y Z

Matt Wertz - Somebody New tab

-----------------------------------------------------------------------------
			     SOMEBODY NEW - Matt Wertz - While We're Becoming EP
-----------------------------------------------------------------------------
Tabbed by: davidthegr81
Email: daveschneider88@hotmail.com

Tuning: 1/2 Step Down

I couldn't find this tab ANYWHERE so I listened to the song like 100 times and this is 
what I came up with. I think it's pretty accurate! Enjoy! :)

This is the main riff played during the intro...verses....chorus....
I haven't tabbed the solo because I'm only a rhythm player! :) If someone you
like to do the honors so I can add it to this tab that would be great! Of course,
you will be mentioned!

e|--------------------------------------------------------------------------|
B|---------------------------------------------------------------------10---|
G|-----9----12--x---11~--x---12-11--x--------9---12--x---11~--x--11-12------|
D|----10----12--x---12~--x----------x-------10---12--x---12~--x----------12-|
A|--------------x----x---x----------x----------------x----x---x-------------|
E|--8~----------x---10~--x-10-------x-10--8~---------x---10~--x-10----------|

e|--------------------------------------------------------------------------|
B|--------------------------------------------------------------------------|
G|-----9----12--x---12~--x---12-11--x---------------------------------------|
D|----10----12--x---12~--x----------x---------------------------------------|
A|--------------x----x---x----------x---7--------------7---------7~---------|
E|--8~----------x---10~--x--10------x------0~-----5h7-------5--7------------|


************************************

x
x      means to slap all 4 strings muted.
x
x

~ means to let it ring

************************************
Tap to rate this tab
 
# A B C D E F G H I J K L M N O P Q R S T U V W X Y Z