Song name
# A B C D E F G H I J K L M N O P Q R S T U V W X Y Z

Matt Wertz - Im Sorry Mary tab

Tabbed by: Eddie Dempster

Tuning: Standard
Verse / Chorus:
e|---------------------------------------------------------------------|
B|----------------------------------------------10-9-------------------|
G|----11-9-----9-8-----4-6-----4-6--/--11-9--------------4-2-----4-2---|
D|---------------------------------------------------------------------|
A|-------------------00-0-0--00-0----------------------00-0-0--00-0-0--|
E|--99--9-9--77-7-7------------------99--9-9--00--0-0------------------|

This repeats throughout the song, except for the bridge.
Bridge:
e|---------------------------------------------------------------------|
B|---------------------------------------------------------------------|
G|---------------------------------------------------------------------|
D|----2-2-2-----2-2-2-----2-2-2-----2-2-2------------------------------| X4
A|----------------------44-4-4-4--22-2-2-2-----------------------------|
E|--44-4-4-4--55-5-5-5-------------------------------------------------|
Tap to rate this tab
# A B C D E F G H I J K L M N O P Q R S T U V W X Y Z