Song name
# A B C D E F G H I J K L M N O P Q R S T U V W X Y Z

Matt Wertz - Red Meets Blue tab

-------------------------------------------------------------------------------
			     RED MEETS BLUE - MATT WERTZ
-------------------------------------------------------------------------------
Tabbed by:
Email: JACOB.KASINGER420@YAHOO.COM

Tuning: Half Step Down

Intro/Verse ( * = SLAP)
e|---------*------------*----------*-----------*----------------|
B|----3----*-------7-7--*-----3----*-------7-7-*----------------|
G|----2p0--*-------6-7--*-----2p0--*-------6-7-*----------------|
D|---------*------------*----------*-----------*----------------|
A|---------*------------*----------*-----------*----------------|
E|--3------*----3/7-----*--7/3-----*----3/7----*--7/3-(Repeat)--|

Chorus
e|------------*---------*------------*-----------*------------*----------*--|
B|--------8/7-*------7--*-------8/7--*---------3-*--------8/7-*--------7-*--|
G|------7-----*-----7---*------7-----*--------4--*------7-----*-------7--*--|
D|-----0------*--0------*------------*-----------*-----0------*----0-----*--|
A|------------*---0-----*---0--------*-----------*------------*-----0----*--|
E|--7h9-------*---------*----7-------*----7-3----*---3--------*----------*--|

e|-------------*---------*--------------------------------------------------------------|
B|---------8/7-*-------3-*--------------------------------------------------------------|
G|-------7-----*------4--*--------------------------------------------------------------|
D|-------------*---------*--------------------------------------------------------------|
A|---0---------*---------*--------------------------------------------------------------|
E|-----7-------*--7-3----*----VERSE-----------------------------------------------------|

VERSE 2
e|---------*------------*----------*-----------*----------------|
B|----3----*-------7-7--*-----3----*-------7-7-*----------------|
G|----2p0--*-------6-7--*-----2p0--*-------6-7-*----------------|
D|---------*------------*----------*-----------*----------------|
A|---------*------------*----------*-----------*----------------|
E|--3------*----3/7-----*--7/3-----*----3/7----*--7/3-(Repeat)--|


Chorus AGAIN
e|------------*---------*------------*-----------*------------*----------*--|
B|--------8/7-*------7--*-------8/7--*---------3-*--------8/7-*--------7-*--|
G|------7-----*-----7---*------7-----*--------4--*------7-----*-------7--*--|
D|-----0------*--0------*------------*-----------*-----0------*----0-----*--|
A|------------*---0-----*---0--------*-----------*------------*-----0----*--|
E|--7h9-------*---------*----7-------*----7-3----*---3--------*----------*--|

e|-------------*---------*---------------------------------------------------------------|
B|---------8/7-*-------3-*---------------------------------------------------------------|
G|-------7-----*------4--*---------------------------------------------------------------|
D|-------------*---------*---------------------------------------------------------------|
A|---0---------*---------*---------------------------------------------------------------|
E|-----7-------*--7-3----*----BRIDGE-----------------------------------------------------|

e|--------*---------*----------*----------------------|
B|---3-3-3*/--5--5-6*---7--7-7-*--7--5/---3-----------|
G|---4-4-4*/--6--6-6*---7--7-7-*--7--6/---4-----------|
D|--------*---------*----------*----------------------|
A|--------*---------*----------*----------------------|
E|---3-3-3*/--5--5-5*---7--7-7-*--7--5/---3---CHORUS--|

Chorus UNTIL END
e|------------*---------*------------*-----------*------------*----------*--|
B|--------8/7-*------7--*-------8/7--*---------3-*--------8/7-*--------7-*--|
G|------7-----*-----7---*------7-----*--------4--*------7-----*-------7--*--|
D|-----0------*--0------*------------*-----------*-----0------*----0-----*--|
A|------------*---0-----*---0--------*-----------*------------*-----0----*--|
E|--7h9-------*---------*----7-------*----7-3----*---3--------*----------*--|

e|-------------*---------*-----------------------------------------------------------|
B|---------8/7-*-------3-*-----------------------------------------------------------|
G|-------7-----*------4--*-----------------------------------------------------------|
D|-------------*---------*-----------------------------------------------------------|
A|---0---------*---------*-----------------------------------------------------------|
E|-----7-------*--7-3----*-----------------------------------------------------------|

| /  slide up
| \  slide down
| h  hammer-on
| p  pull-off
| ~  vibrato
| +  harmonic
| x  Mute note
===============================================================================
Tap to rate this tab
 
# A B C D E F G H I J K L M N O P Q R S T U V W X Y Z