Song name
# A B C D E F G H I J K L M N O P Q R S T U V W X Y Z

Matt Wertz - Sweetness In Starlight tab

Sweetness in Starlight
by Matt Wertz

Tabbed by DiCarlo Thompson  "Captain Poo Flinger"

This is a great song...sounds a lot more complicated than it is...but still looks 
to onlookers watching as you play.

DADGAD tuning

Intro/Post-chorus (strumming all strings lightly and randomly)
D-----------------------------------------------------------------------|
A-----------------------------------------------------------------------|
G---------2p0----------------7p6----------------2p0---------------------|
D------0------0------------0-----0------------0-----0----------------0--|
A-----------------------------------------------------------0h2h4--4----|
D--0h4----------h5-----0h4---------h7-----0h4----------h5---------------|

most of verse (except next section)
D--------------------------------------|
A--------------------------------------|
G---------2p0--------------7p6---------|
D------0-----------------0-------------|
A--------------------------------------|
D--0h4--------h5-----0h4-------h7------|

"still your smile is the summer's way..."
D---0---0----|
A---0---0----|
G---4---2----|
D---0---2----|
A---2---0----|
D------------|

then back to main riff again

Chorus
D---0--0---0--0--|
A---0--0---0--0--|
G---7--6---4--2--|
D---7--7---4--4--|
A---5--4---2--4--|
D----------------|

If you have a second guitar playing, for the chorus play this over and over
D------7-----7-----------7-----7-----|
A----5-----5-----0-----5-----5-----0-|
G--6-----6-----6-----4-----6-----6---|
D------------------------------------|
A------------------------------------|
D------------------------------------|


Second verse same as first until the end "And your touch is..."

D--0--0--0-2--0-0--| back to main riff  -0-|
A--0--0--0-2--0-0--| then "you fix all  -7-|
G--2--2--4-2--2-2--|       that I'm not -0-|
D--0--2--4-2--0-2--|       yeah..."     -7-|
A--2--0--2-4--2-0--|                    -0-|
D------------------|                    ---|

Chorus

Bridge
D--0--0--0--2--|
A--0--0--0--2--|
G--2--2--2--2--|
D--0--2--0--2--|
A--2--0--2--4--|
D--------------|

Outro (Same as intro but last measure is...)
D-----------|
A-----------|
G-----------| let notes ring
D-----------|
A-------0---|
D-0-4-5---0-|
Tap to rate this tab
# A B C D E F G H I J K L M N O P Q R S T U V W X Y Z