Song name
# A B C D E F G H I J K L M N O P Q R S T U V W X Y Z

Matt Wertz - Will Not Take My Love Away tab

Matt Wertz - Will Not Take My Love Away
Tabbed by Mark Daisy

Tuning - 1/2 down


*1st part*

"I will not take..."     "When praises cease..." 

                         [For these there is a "double strum just listen]
                 F   C    Dm   A7   c   G
e|---------0-----x---x-----1---0----x---x---|
B|---1---3---1---1---1-----3---1----1---3---|
G|---------------2---0-----2---0----0---0---|
D|---------------3---2---------2----2---0---|
A|---3-----------x---3---------x----3---x---|
E|---------------x---x---------x----x---3---|

*2nd part*

"While the whole world.."    "I will not take my love away"

                 F   C                    G   C
e|---------0-----x---x-----|--------0-----x---x---|
B|---1---3---1---1---1-----|--1---3---3---3---1---|
G|---------------2---0-----|--------------0---0---|
D|---------------3---2-----|--------------0---2---|
A|---3-----------x---3-----|--3-----------x---3---|
E|---------------x---x-----|--------------3---x---|

*Repeat 1st and 2nd part for verses one and two*

[Bridge]   ~ = slide

  "ohhhhhhhh..."     "yeah..."

     Am   G   F      Am  G   F   G     C
e|---5----3---1---|--5---3---1~~~3-----x--|
B|---5----3---1---|--5---3---1~~~3-----1--|
G|---5----4---2---|--5---4---2~~~4-----0--|
D|---7----5---3---|--7---5---3~~~5-----2--|
A|---7----5---3---|--7---5---3~~~5-----3--|
E|---5----3---1---|--5---3---1~~~3-----x--|


"I will give..."          "In plenty or..."

                 F   C    Dm   A7   c   G
e|---------0-----x---x-----1---0----x---x---|
B|---1---3---1---1---1-----3---1----1---3---|
G|---------------2---0-----2---0----0---0---|
D|---------------3---2---------2----2---0---|
A|---3-----------x---3---------x----3---x---|
E|---------------x---x---------x----x---3---|


"Forever always.."           "I will give you what you need..."
                 
                 F   C                    G   Am (let ring)
e|---------0-----x---x-----|--------0-----x---x---|
B|---1---3---1---1---1-----|--1---3---3---3---1---|
G|---------------2---0-----|--------------0---2---|
D|---------------3---2-----|--------------0---2---|
A|---3-----------x---3-----|--3-----------x---x---|
E|---------------x---x-----|--------------3---x---|

 "I will not take my love away."

                G   C
e|--------0-----x---x---|
B|--1---3---3---3---1---|
G|--------------0---0---|
D|--------------0---2---|
A|--3-----------x---3---|
E|--------------3---x---|
Tap to rate this tab
 
# A B C D E F G H I J K L M N O P Q R S T U V W X Y Z