Song name
# A B C D E F G H I J K L M N O P Q R S T U V W X Y Z

Matt Wertz - Even The Street tab

Help us improve GuitareTab! Take a short survey!
Capo on the first fret

--------3--3------------3--3---------------3--3-------------3--3------------|
--------0--1------------0--1---------------0--1-------------0--1------------|
----------------------------------------------------------------------------|
---2------------2----------------0-----2----------2----2-------------0------|
-3---3--------3-----2--------0h2-----0---0------0-----------------0h2-------|
------------------3---3------------------------------3---3------------------|
 Intro (repeat for verses)(wherever you hear finger picking)

-3--------------3-------------------3----------------3----------------------|
-1--------------1-------------------1----------------1----------------------|
-0--------------0-------------------0----------------0----------------------|
-2--------------0-------------------2----------------0----------------------|
-3--------------2-------------------0----------------2----------------------|
-x--------------3-------------------x----------------3----------------------|
        But i left the pictures of you behind
Related for Even The Street tab