Song name
# A B C D E F G H I J K L M N O P Q R S T U V W X Y Z

Matt Wertz - Everythings Right tab

Capo 3rd fret

Intro riff 1:

E|-----------------------------------|
B|-----------------------------------|
G|---0------7-------0------0-2-------|
D|--2------5-5-----4-4----0----------|
A|-3------7-------5------2-----------|
E|-----------------------------------|

Second part is different (rythm in third chord)
it leads directly into repeat

E|--------------------------------------------------------------|
B|--------------------------------------------------------------|
G|---0-----7------------0-------0------7-------0------0-2-------|
D|--2-----5-5---------4--4-----2------5-5-----4-4----0----------|
A|-3-----7-------5-----5--5-2p3------7-------5------2-----------|
E|--------------------------------------------------------------|

E|----------------------------------|
B|----------------------------------|
G|---0-----7------------0-----------|     ...etc.
D|--2-----5-5---------4--4----------|
A|-3-----7-------5-----5--5-2p3-----|
E|----------------------------------|
Tap to rate this tab
# A B C D E F G H I J K L M N O P Q R S T U V W X Y Z