Song name
# A B C D E F G H I J K L M N O P Q R S T U V W X Y Z

Matt White Band - Falling In Love tab

The whole song uses the same finger-picking pattern. Also you finger-pick the same chords.

Intro (finger-picked)
--0----  --0---  --0----
--3----  --0---  --0----
--0h2--  --3---  --0h2--
--0----  --2---  --2----
--1----  --1---  --1----
--3----  --3---  --3----

Chorus (strummed)
--0---  --0---  --3---  --0---
--0---  --3---  --2---  --0---
--3---  --2---  --0---  --2---
--2---  --0---  --0---  --2---
--1---  --1---  --1---  --1---
--3---  --3---  --3---  --3---
Tap to rate this tab
# A B C D E F G H I J K L M N O P Q R S T U V W X Y Z