Guitaretab - guitar tabs
Song name
# A B C D E F G H I J K L M N O P Q R S T U V W X Y Z

Matt White - Love tab

JKJ

Standard Tuning

Chords Used
   F  C  G  E
e|-1--3--3--5-|
B|-1--3--3--5-|
G|-1--5--3--5-|
D|-2--5--5--7-|
A|-2--3--5--7-|
E|-1--3--3--5-|

Intro/Verse

   C                        F      G
e|-3--3--3--3--3--3--3--3---1--1---3--3--3--3---|
B|-3--3--3--3--3--3--3--3---1--1---3--3--3--3---|
G|-5--5--5--5--5--5--5--5---1--1---3--3--3--3---|
D|-5--5--5--5--5--5--5--5---3--3---5--5--5--5---|
A|-3--3--3--3--3--3--3--3---3--3---5--5--5--5---|
E|-3--3--3--3--3--3--3--3---1--1---3--3--3--3---|


Chorus

   F           C           G           Am
e|-1--1--1-----3--3--3-----3--3--3-----0--0--0---|
B|-1--1--1-----3--3--3-----3--3--3-----1--1--1---|
G|-1--1--1-----5--5--5-----3--3--3-----2--2--2---|
D|-3--3--3-----5--5--5-----5--5--5-----2--2--2---|
A|-3--3--3-----3--3--3-----5--5--5-----0--0--0---|
E|-1--1--1-----3--3--3-----3--3--3-----0--0--0---|

[ Tab from: http://www.guitaretab.com/m/matt-white/178967.html ]
And love ..
Such a silly game we play, oh,
Like a summerís day in May.
What is love, what is love?
I just want it to be love
oooh. oh

I, I, I, I, I .. I can feel it in your kiss
It just gives me tender bliss
What is love, what is love?
I just want it to be love
oooh. oh.

When I feel you around,
I was mad as hell when I hit the ground.
When I see you laugh away
It hurts but I just wonít say,
uh uh uh. Loveee ...

Who can tell me? I am lost.
I just think that I am strong.
What is love, what is love?
I just want it to be love.
ooooh ooh.

When I feel you around,
I was so upset we fell on the ground
When I see you mad at me
It was such a silly thing
ooooooh

And love ..
Such a silly game we play,
Like a summerís day in May.
What is love, what is love?
I just want it to be love
ooooh. oh

and I, I, I, I, I, I can feel it in a kiss
It is something I will miss
What is love, what is love?
I just want you to be love
Related for Love tab