Song name
# A B C D E F G H I J K L M N O P Q R S T U V W X Y Z

Matt Willis - Get Bored tab

e|-------------------------------------------------------]
B|-------------------------------------------------------]
G|--5-5-5-5--5-5-5-------------5-5-5-5--5-5-5---7--9-----]
D|--5-5-5-5--5-5-5---5--3--5---5-5-5-5--5-5-5---7--7-----]
A|--3-3-3-3--3-3-3---3--1--5---3-3-3-3--3-3-3---5--7-----]
E|-------------------3--1--3-----------------------------]

e|-------------------------------------------------------]
B|-------------------------------------------------------]
G|--5-5-5-5--5-5-5-------------5-5-5---5-5-5---5-5-5-5-5-]
D|--5-5-5-5--5-5-5---5--3--5---5-5-5---5-5-5---5-5-5-5-5-]
A|--3-3-3-3--3-3-3---3--1--5---3-3-3---3-3-3---3-3-3-3-3-]
E|-------------------3--1--3-----------------------------]

Tabbed by Mahoo__xx
Tap to rate this tab
 
# A B C D E F G H I J K L M N O P Q R S T U V W X Y Z