Song name
# A B C D E F G H I J K L M N O P Q R S T U V W X Y Z

Matteo Carcassi - Op 60 Study No 8 In E tab

This is study 8 of Carcassi's "25 Studi Melodici e Progressivi" (Op 60)

Moderato
Tuning : E A D G B E    
Time Signature: 2/4
Transcribed by Michael Felix (mfelix@myrealbox.com)

 |               |                |               |                
|--------------------------------|--------------------------------|
|--------2p--0-----------2p--0---|--------5p--4-----------5p--4---|
|----1---------------1-----------|----2---------------2-----------|
|2---------------2---------------|4---------------4---------------|
|--------------------------------|--------------------------------|
|--------------------------------|--------------------------------|
 2   1   3   0                    2   1   4   3
 

                                  C2-------------------------------
 |               |       |        |               |                
|--------2p--0-----------2p--0---|--------4p--2-----------4p--2---|
|----0---------------0-----------|----2---------------2-----------|
|1---------------1---------------|2---------------2---------------|
|--------------------------------|--------------------------------|
|--------------------------------|--------------------------------|
|--------------------------------|--------------------------------|
 1   0   3   0                    1   1   4   1

--------------------------------
 |               |                |               |                
|--------4p--2-----------4p--2---|--------4p--2-----------4p--2---|
|----2---------------2-----------|----4---------------4-----------|
|3---------------3---------------|4---------------4---------------|
|--------------------------------|--------------------------------|
|--------------------------------|--------------------------------|
|--------------------------------|--------------------------------|
 2   1   4   1                    2   3   4   1

                                  C7-----------------------------
 |               |                |               |                
|--------7p--6-----------7p--6---|--------9p--7p------------------|
|----5---------------5-----------|----7---------------------------|
|6---------------6---------------|8-------------------------------|
|--------------------------------|----------------9---------------|
|--------------------------------|--------------------------------|
|--------------------------------|--------------------------------|
 2   1   4   3                    2   1   3   1   4

 C4-----------------------------
 |               |                |               |                
|--------------------------------|--------------------------------|
|--------------------------------|--------3p--1-----------3p--1---|
|--------6p--4-----------6p--4---|----0---------------0-----------|
|----4---------------4-----------|2---------------2---------------|
|6---------------6---------------|--------------------------------|
|--------------------------------|--------------------------------|
 3   1   4   1                    2   0   4   1

 |               |                |               |                
|--------------------------------|--------2p--0-----------2p--0---|
|--------5p--4-----------5p--4---|----0---------------0-----------|
|----2---------------2-----------|0---------------0---------------|
|4---------------4---------------|--------------------------------|
|--------------------------------|--------------------------------|
|--------------------------------|--------------------------------|
 2   1   4   3                    0   0   2   0

                                  C2-----------------------------
 |               |                |               |                
|--------3p--2-----------3p--2---|--------4p--2-----------4p--2---|
|----1---------------1-----------|----2---------------2-----------|
|2---------------2---------------|3---------------3---------------|
|--------------------------------|--------------------------------|
|--------------------------------|--------------------------------|
|--------------------------------|--------------------------------|
 2   1   4   3                    2   1   4   1

 C4------------
 |               |                |               |                
|--------------------------------|--------------------------------|
|--------5p--4-----------4p--2---|--------2p--0-------------------|
|----4---------------3-----------|--------------------------------|
|4---------------4---------------|----1---------------------------|
|--------------------------------|2---------------2---------------|
|--------------------------------|--------------------------------|
 1   1   3   1   3   2   4   1    2   1   3   0   2

 |               |                |               |                
|--------------------------------|------------------------2-------|
|--------2p--0-----------2p--0---|--------2p--0-------------------|
|----1---------------1-----------|----2---------------2-------2---|
|2---------------2---------------|1-------------------------------|
|--------------------------------|----------------2---------------|
|--------------------------------|--------------------------------|
 2   1   3   0                    1   3   4   0   2   3   4   3

 |               |                |               |                
|--------------------------------|------------------------4-------|
|--------2p--0-----------2p--0---|--------2p--0-------------------|
|----2---------------2-----------|----1---------------1-------1---|
|1---------------1---------------|2-------------------------------|
|--------------------------------|--------------------------------|
|--------------------------------|----------------0---------------|
 1   3   4   0                    2   1   3   0       1   4   1

 |               |                |               |                
|--------2p--0-----------2p--0---|--------0---------------0-------|
|--------------------------------|--------------------------------|
|----1---------------1-----------|----2-------2-------3-------3---|
|2---------------0---------------|--------------------------------|
|--------------------------------|4---------------3---------------|
|--------------------------------|--------------------------------|
 2   1   3   0   0   1   3   0    4   1   0   1   2   3   0   3

 |               |                |               |                
|--------------------------------|--------2p--0------------------||
|--------2p--0-----------4p--0---|-------------------------------||
|----1---------------2-----------|----1--------------------------||
|--------------------------------|2------------------------------||
|2---------------2---------------|-------------------------------||
|--------------------------------|----------------0--------------||
 2   1   3   0   1   2   4   0    2   1   3   0
Tap to rate this tab
# A B C D E F G H I J K L M N O P Q R S T U V W X Y Z