Song name
# A B C D E F G H I J K L M N O P Q R S T U V W X Y Z

Matteo Carcassi - Op 60 Study No 6 In C tab

This is study 6 of Carcassi's "25 Studi Melodici e Progressivi" (Op 60)

Moderato
Tuning : E A D G B E    
Time Signature: 4/4
Transcribed by Michael Felix (mfelix@myrealbox.com)

 |       |       |       |        |       |       |       |        
|0-------------------------------|1-------------------------------|
|----------------1---------------|--------------------------------|
|------------0---2---0-----------|--------------------------------|
|----2---3---------------3---2---|0---2---3---2---0---2---0-------|
|3-------------------------------|----------------------------3---|
|--------------------------------|--------------------------------|

 |       |       |       |        |       |       |       |        
|--------------------------------|--------------------------------|
|3---------------0---------------|1-------------------------------|
|----------------0---2---0-------|--------0-----------------------|
|----0---2---3---------------3---|2---3-------3---2---3---2---0---|
|2-------------------------------|--------------------------------|
|--------------------------------|--------------------------------|

 |       |       |       |        |       |       |       |        
|0-------------------------------|------------------------3-------|
|----------------1---------------|3---------------0---------------|
|------------0---2---1---2---0---|----------------0---------------|
|----2---3-----------------------|4---0---2---4-------1---2-------|
|3-------------------------------|----------------------------2---|
|--------------------------------|--------------------------------|

 |       |       |       |        |       |       |       |        
|3---------------2---------------|3-------------------------------|
|--------------------------------|--------------------------------|
|--------------------------------|----------------0---------------|
|----------------0---------------|--------0---4-------------------|
|3---0---2---3-------3---2---0---|----2---------------------------|
|--------------------------------|3-------------------------------|

 |       |       |       |        |       |       |       |        
|----------------0---------------|--------------------------------|
|----0---1---3-------3---1---0---|1-----------0---1---0-----------|
|0-------------------------------|----1---2---------------2---0---|
|--------------------------------|--------------------------------|
|2-------------------------------|0-------------------------------|
|----------------3---------------|--------------------------------|

 |       |       |       |        |       |       |       |        
|--------------------------------|--------------------------------|
|--------0---1---3---1---0-------|0---------------0---1---3---0---|
|----2-----------------------2---|--------0---2-------------------|
|4-------------------------------|----4---------------------------|
|5-------------------------------|--------------------------------|
|----------------2---------------|3-------------------------------|

 |       |       |       |        |       |       |       |        
|----------------0---1---0-------|--------------------0-----------|
|----0---1---3---------------3---|1-------0---1---3-------3---1---|
|0-------------------------------|----2---------------------------|
|--------------------------------|----------------4-------0-------|
|2-------------------------------|0-------------------------------|
|----------------4-------0-------|--------------------------------|

 |       |       |       |        |       |       |       |        
|--------3---2---0---------------|--------------------------------|
|0-------------------3---1---0---|0-------------------------------|
|----0---------------------------|----2---0-------0---------------|
|--------------------------------|0-----------4-------3---2---0---|
|----------------3-------0-------|----3---2---0-------------------|
|3-------0-----------------------|----------------3---------------|

 |       |       |       |        |       |       |       |        
|0-------------------------------|1-------------------------------|
|----------------1---------------|--------------------------------|
|------------0---2---0-----------|--------------------------------|
|----2---3---------------3---2---|0---2---3---2---0---2---0-------|
|3-------------------------------|----------------------------3---|
|--------------------------------|--------------------------------|

 |       |       |       |        |       |       |       |        
|--------------------------------|--------------------------------|
|3---------------0---------------|1-------------------------------|
|----------------0---2---0-------|--------0-----------------------|
|----0---2---3---------------3---|2---3-------3---2---3---2---0---|
|2-------------------------------|--------------------------------|
|--------------------------------|--------------------------------|

 |       |       |       |        |       |       |       |        
|0-------------------------------|------------0---1---------------|
|----------------2---------------|3---2---3---------------3-------|
|------------0---2---3---2---0---|----0---------------------------|
|----2---3-----------------------|3-------3---2---0---2---3---0---|
|3-------------------------------|--------------------------------|
|--------------------------------|--------------------------------|

 |       |       |       |        |       |       |       |        
|0---------------1---------------|0---0---1---3---5-----------3---|
|1---------------0---------------|1-------------------------------|
|0---------------0---------------|--------------------------------|
|------------2-------------------|--------------------------------|
|--------3---------------2-------|3-------------------0---2---4---|
|----3---------------3-------3---|--------------------------------|

 |       |       |       |        |       |       |       |        
|1-------0---1---3-----------1---|0---------------0-------0-------|
|----3---------------------------|1---------------1-------1-------|
|--------------------------------|--------------------------------|
|0-------------------------------|--------------------------------|
|------------------------0---2---|3---2---3---2---0-------0-------|
|--------------------3-----------|--------------------4-------2---|

 |       |       |       |        |       |       |       |        
|0---------------1---------------|0---0---1---3---5-----------3---|
|1---------------0---------------|1-------------------------------|
|----0---------------------------|--------------------------------|
|--------2-----------0-----------|--------------------------------|
|------------3-----------2-------|3-------------------0---2---4---|
|3---------------3-----------3---|--------------------------------|

 |       |       |       |        |       |       |       |        
|1-------0---1---3-----------1---|0---------------1-------2-------|
|----3---------------------------|--------------------1-------1---|
|--------------------------------|--------0---3---2-------1-------|
|0-------------------------------|----2---------------------------|
|------------------------0---2---|3-------------------------------|
|--------------------3-----------|--------------------------------|

 |       |       |       |        |       |       |       |        
|3---0---------------------------|----0---------------------------|
|--------1-------0---------------|1-------3---1---0---3---1---0---|
|0-----------2---0---------------|0---------------1---------------|
|--------------------3---2---0---|--------------------------------|
|--------------------------------|3---------------3---------------|
|----------------3---------------|--------------------------------|

 |       |       |       |        |       |       |       |        
|----0---------------1---0-------|0---0---------------------------|
|1-------3---1---3-----------3---|--------3---1---0---3---1---0---|
|0---------------0---------------|0---------------1---------------|
|--------------------------------|--------------------------------|
|3---------------3---------------|3---------------3---------------|
|--------------------------------|--------------------------------|

 |       |       |       |        |       |       |       |        
|----0---------------1---0-------|0-----------------------1-------|
|1-------3---1---3-----------3---|1-------0-------1-------0-------|
|0---------------0---------------|0-------1-------0-------0-------|
|--------------------------------|--------3-------2---------------|
|3---------------3---------------|----3-------3-------3-------3---|
|--------------------------------|--------------------------------|

 |       |       |       |        |       |       |       |        
|0-----------------------1-------|0---------------0-------3-------|
|1-------0-------1-------0-------|1-------------1-----------------|
|0-------1-------0-------0-------|0-----------------------0-------|
|--------3-------2---------------|----------------2---------------|
|----3-------3-------3-------3---|3-------------3-----------------|
|--------------------------------|--------------------------------|

 |       |       |       |        |       |       |       |        
|8--------------)1---------------|)0-----------------------------||
|---------------(1---------------|(1-----------------------------||
|5--------------)1---------------|)0-----------------------------||
|---------------(3---------------|(2-----------------------------||
|---------------)3---------------|)3-----------------------------||
|---------------(1---------------|-------------------------------||
Tap to rate this tab
 
# A B C D E F G H I J K L M N O P Q R S T U V W X Y Z