Guitaretab - guitar tabs
Song name
# A B C D E F G H I J K L M N O P Q R S T U V W X Y Z

Matteo Carcassi - Op 26 No 6 - Capricho In A tab

Capricho 6 - Matteo Carcassi (1792-1853)

Opus 26 No 6

Transcribed by Evgenij Voos

Allegro non troppo

1
E||----------0-----------------------|----------5-------5-------5-------|
B||------2-------2-------2-------2---|------2-------2-------2-------2---|
G||----2---2---2---2---2---2---2---2-|----2---2---2---2---2---2---2---2-|
D||------------------2---------------|----------------------------------|
A||--0-----------------------4-------|--0-------------------------------|
E||----------------------------------|----------------------------------|

3
----------2-----------------------|----------5-------5-------5-------|
------3-------3-------3-------3---|------3-------3-------3-------3---|
----2---2---2---2---2---2---2---2-|----2---2---2---2---2---2---2---2-|
------------------4-------0-------|----------------------------------|
--0-------------------------------|--0-------------------------------|
----------------------------------|----------------------------------|

5
----------0-----------------------|--------------0-------0-------0---|
------2-------2-------2-------2---|------2-----2---2---2---2---2---2-|
----2---2---2---2---2---2---2---2-|----2---2-2-------2-------2-------|
------------------2---------------|----------------------------------|
--0-----------------------4-------|--0-------------------------------|
----------------------------------|----------------------------------|

7
------0-------0-------0-------0---|------0-------0-------0-------0---|
----2---2---3---3---0---0---0---0-|----2---2-------------------------|
--3-------4---------------1-------|--2---------2---2---2---2---2---2-|
----------------------------------|----------------------------------|
----------------------------------|----------4-------4-------4-------|
------------------0---------------|----------------------------------|

9
------0-------0-------0-------0---|------0-------0-------0-------0---|
------------0---0---0---0---------|------------2---2---2---2---2---2-|
----3---3-------------------1---1-|----2---2-2-------2-------2-------|
----------0-----------------------|----------------------------------|
--4-----------------------2-------|--4-------------------------------|
------------------0---------------|----------------------------------|

11
------0-------0-------0-------0---|------0-------0-------0-------0---|
----5---5---3---3---0---0---0---0-|----2---2-------------------------|
--6-------4---------------1-------|--2---------2---2---2---2---2---2-|
----------------------------------|----------------------------------|
----------------------------------|----------4-------4-------4-------|
------------------0---------------|----------------------------------|

13
------0-------0-------0-------0---|------0-------0-------0-------0---|
----2---2---0---0---0---0---------|------------2---2---2---2---2---2-|
----------------------------1---1-|----2---2-2-------2-------2-------|
--2-------0-----------------------|----------------------------------|
--------------------------2-------|--4-------------------------------|
------------------0---------------|----------------------------------|

15
------0-------------------2-------|------0-------4-------4-------4---|
--------------4-------0-------0---|------------0---0---0---0---0---0-|
----2---2---2---2---2---2---2---2-|----1---1-------------------------|
--4-------4-------1---------------|--2-------2-------2-------2-------|
----------------------------------|----------------------------------|
----------------------------------|----------------------------------|

17
------5-------4-------5-------2---|------4-------0-------0-------0---|
----0---0---0---0---0---0---0---0-|----0---0---0---0---0---0---0---0-|
----------------------------------|----------------------------------|
--4-------3-------4-------1-------|--2-----------------------2-------|
----------------------------------|------------------2---------------|
----------------------------------|----------4-----------------------|

19
------0-------------------2-------|------0-------4-------4-------4---|
--------------4-------0-------0---|------------0---0---0---0---0---0-|
----2---2---2---2---2---2---2---2-|----1---1-------------------------|
--4-------4-------1---------------|--2-------2-------2-------2-------|
----------------------------------|----------------------------------|
----------------------------------|----------------------------------|

21
------5-------4-------5-------2---|------4-------0-------0-------0---|
----0---0---0---0---0---0---0---0-|----0---0---0---0---0---0---0---0-|
----------------------------------|----------------------------------|
--4-------3-------4-------1-------|--2-----------------------2-------|
----------------------------------|------------------2---------------|
----------------------------------|----------4-----------------------|

23
------0---2---0-------0-------0---|------0---2---0-------0-------0---|
----------------------------------|----------------------------------|
----1---1---1---1---1---1---1---1-|----2---2---2---2---2---2---2---2-|
--0---------------0---------------|----------------------------------|
----------------------------------|--4---------------4---------------|
--------------------------0-------|--------------------------0-------|

25
----------------------------------|----------------0-------0-------0-|
------3-------3-------2-------2---|------0-------0-------0-------0---|
----1---1---1---1---2---2---2---2-|----1---1---1-------1-------1-----|
----------------------------------|--------------------------2-------|
--2---------------0---------------|------------------2---------------|
----------0---------------0-------|--0-------4-----------------------|

27
------0---1---0-------0-------0---|------0---1---0-------0-------0---|
----------------------------------|----------------------------------|
----1---1---1---1---1---1---1---1-|----2---2---2---2---2---2---2---2-|
--0---------------0---------------|----------------------------------|
----------------------------------|--3---------------3---------------|
--------------------------0-------|--------------------------0-------|
[ Tab from: http://www.guitaretab.com/m/matteo-carcassi/288937.html ]
29
----------------------------------|----------------0-------0-------0-|
------3-------3-------1-------1---|------0-------0-------0-------0---|
----1---1---1---1---2---2---2---2-|----1---1---1-------1-------1-----|
----------------------------------|----------2-------0---------------|
--2---------------0---------------|--------------------------2-------|
----------0---------------0-------|--0-------------------------------|

31
----------0-----------------------|----------5-------5-------5-------|
------2-------2-------2-------2---|------2-------2-------2-------2---|
----2---2---2---2---2---2---2---2-|----2---2---2---2---2---2---2---2-|
------------------2---------------|----------------------------------|
--0-----------------------4-------|--0-------------------------------|
----------------------------------|----------------------------------|

33
----------2-----------------------|----------5-------5-------5-------|
------3-------3-------3-------3---|------3-------3-------3-------3---|
----2---2---2---2---2---2---2---2-|----2---2---2---2---2---2---2---2-|
------------------4-------0-------|----------------------------------|
--0-------------------------------|--0-------------------------------|
----------------------------------|----------------------------------|

35
----------0-----------------------|--------------0-------0-------0---|
------2-------2-------2-------2---|------2-----2---2---2---2---2---2-|
----2---2---2---2---2---2---2---2-|----2---2-2-------2-------2-------|
------------------2---------------|----------------------------------|
--0-----------------------4-------|--0-------------------------------|
----------------------------------|----------------------------------|

37
------0-------0-------0-------0---|------0-------0-------0-------0---|
----2---2---3---3---0---0---0---0-|----2---2-------------------------|
--3-------4---------------1-------|--2---------2---2---2---2---2---2-|
----------------------------------|----------------------------------|
----------------------------------|----------4-------4-------4-------|
------------------0---------------|----------------------------------|

39
------0-------0-------0-------0---|------0-------0-------0-------0---|
------------0---0---0---0---------|------------2---2---2---2---2---2-|
----3---3-------------------1---1-|----2---2-2-------2-------2-------|
----------0-----------------------|----------------------------------|
--4-----------------------2-------|--4-------------------------------|
------------------0---------------|----------------------------------|

41
----0---0-----0-------0-------0---|------0-------0-------0-------0---|
--2---5-----3---3---0---0---0---0-|----2---2-------------------------|
----------4---------------1-------|--2---------2---2---2---2---2---2-|
----------------------------------|----------------------------------|
----------------------------------|----------4-------4-------4-------|
------------------0---------------|----------------------------------|

43
------0-------0-------0-------0---|----------0-----------------------|
----2---2---0---0---0---0---------|------2-------2-------2-------2---|
----------------------------1---1-|----2---2---2---2---2---2---2---2-|
--2-------0-----------------------|------------------2---------------|
--------------------------2-------|--0-----------------------4-------|
------------------0---------------|----------------------------------|

45
----------3-------3-------3-------|----------2-----------------------|
------2-------2-------2-------2---|------3-------3-------3-------3---|
----2---2---2---2---2---2---2---2-|----2---2---2---2---2---2---2---2-|
----------------------------------|------------------4-------0-------|
--0-------------------------------|--0-------------------------------|
----------------------------------|----------------------------------|

47
----------1-------1-------1-------|----------0-----------------------|
------3-------3-------3-------3---|------2-------2-------2-------2---|
----2---2---2---2---2---2---2---2-|----2---2---2---2---2---2---2---2-|
----------------------------------|------------------2---------------|
--0-------------------------------|--0-----------------------4-------|
----------------------------------|----------------------------------|

49
----------0-----------------------|----------0-------1-------0-------|
------2-------2-------2-------2---|------3-------3-------3-------3---|
----2---2---2---2---2---2---2---2-|----1---1---1---1---1---1---1---1-|
------------------2---------------|----------------------------------|
--0-----------------------4-------|--0-------------------------------|
----------------------------------|----------------------------------|

51
----------0-------2-------0-------|----------0-----------------------|
------3-------3-------3-------3---|------2-------2-------2-------2---|
----1---1---1---1---1---1---1---1-|----2---2---2---2---2---2---2---2-|
----------------------------------|------------------2---------------|
--0-------------------------------|--0-----------------------4-------|
----------------------------------|----------------------------------|

53
----------0-----------------------|----------0-------1-------0-------|
------2-------2-------2-------2---|------3-------3-------3-------3---|
----2---2---2---2---2---2---2---2-|----1---1---1---1---1---1---1---1-|
------------------2---------------|----------------------------------|
--0-----------------------4-------|--0-------------------------------|
----------------------------------|----------------------------------|

55
----------0-------2-------0-------|----------0-----------------------|
------3-------3-------3-------3---|------2-------2-------2-------2---|
----1---1---1---1---1---1---1---1-|----2---2---2---2---2---2---2---2-|
----------------------------------|------------------2---------------|
--0-------------------------------|--0-----------------------4-------|
----------------------------------|----------------------------------|

57
----------0---------------------0-|--5------------------------------||
------2-------2-------2-------2---|--2------------------------------||
----2---2---2---2---2---2---2-----|--2------------------------------||
------------------2---------------|--2------------------------------||
--0-----------------------4-------|--0------------------------------||
----------------------------------|---------------------------------||
Related for Op 26 No 6 - Capricho In A tab
×
Best way to learn
"Op 26 No 6 - Capricho In A"