Guitaretab - guitar tabs
Song name
# A B C D E F G H I J K L M N O P Q R S T U V W X Y Z

Matteo Carcassi - Op 26 No 5 - Capricho In D tab

Capricho 5 - Matteo Carcassi (1792-1853)

Opus 26 No 5

Transcribed by Evgenij Voos

Allegro

1
E||--2-------------------------------|--0-----0---0---0---0---0---0---0-|
B||--3-----3---3---3---3---3---3---3-|----------------------------------|
G||--2-----------2---0---------------|--2-------------------------------|
D||--0---0---4-----------4---2---0---|--------------2---0---------------|
A||----------------------------------|--4---0---4-----------4---2---0---|
E||----------------------------------|----------------------------------|

3
------2-------2-------4-------4---|------5-----5---5-----------------|
----3---3---3---3---3---3---3---3-|----2---2-------------------------|
----------------------------------|----------------------------------|
--0---------------2---------------|----------2-----------------------|
----------2-----------------------|--0-----------4-------------------|
--------------------------0-------|------------------5---------------|

5
--3-----3---3---3---3---3---3---3-|--2-----2---2---2---2---2---2---2-|
--2-------------------------------|--3-------------------------------|
--2-------------------------------|--2-----------2---0---------------|
--------------2---0---------------|--0---0---4-----------4---2---0---|
--0---0---4-----------4---2---0---|----------------------------------|
----------------------------------|----------------------------------|

7
------0-------0-------2-------0---|------2---------------2-------5---|
----3---3---3---3---3---3---2---2-|----3---3---3---3---3---3---7---7-|
--0---------------2---------------|----------2-----------------------|
----------2-----------------------|--0-----------4---0-------0-------|
--------------------------0-------|----------------------------------|
----------------------------------|----------------------------------|

9
------6-------7-------10--12--10--|----------------------------------|
----7---7---8---8---12--12--12--12|------9-------10------10--12--10--|
----------------------------------|----10--10--11--11--11--11--11--11|
--0-------0-------0---------------|--0-------0-------0---------------|
----------------------------------|----------------------------------|
----------------------------------|----------------------------------|

11
------3---5---3-------------------|--2-------------------2-------5---|
----5---5---5---5-----5---4---5---|--3-----3---3---3---3---3---7---7-|
--------------------6---6---6---6-|--2---2-------2-------------------|
----------------------------------|--0-------4-------0-------0-------|
--0---------------0---------------|----------------------------------|
----------------------------------|----------------------------------|

13
------6-------7-------10--12--10--|----------------------------------|
----7---7---8---8---12--12--12--12|------9-------10------10--12--10--|
----------------------------------|----10--10--11--11--11--11--11--11|
--0-------0-------0---------------|--0-------0-------0---------------|
----------------------------------|----------------------------------|
----------------------------------|----------------------------------|

15
------3---5---3-------------------|--2-------------------------------|
----5---5---5---5-----5---4---5---|--3-----3---3---3---3---3---3---3-|
--------------------6---6---6---6-|--2-----------2---0---------------|
----------------------------------|--0---0---4-----------4---2---0---|
--0---------------0---------------|----------------------------------|
----------------------------------|----------------------------------|

17
------0---2---0---4---0---2---0---|--5-----0---0---0---0---0---0---0-|
----3---3---3---3---3---3---3---3-|----2-----------------------------|
----------------------------------|----------------------------------|
----------------------------------|--------------2---0---------------|
----------------------------------|------0---4-----------4---2---0---|
--0-------------------------------|----------------------------------|

19
------0-------0-------0-------0---|------0-------0-------0-------0---|
----0---0---2---2-0-3---3---0---0-|----2---2---2---2---2---2---2---2-|
----------3---------------1-------|--2-------------------------------|
----------------------------------|----------2-----------------------|
----------------------------------|------------------4-------0-------|
--0-------------------------------|----------------------------------|

21
------0---2---0---4---0---2---0---|--5-----0---0---0---0---0---0---0-|
----3---3---3---3---3---3---3---3-|----2-----------------------------|
----------------------------------|----------------------------------|
----------------------------------|--------------2---0---------------|
----------------------------------|------0---4-----------4---2---0---|
--0-------------------------------|----------------------------------|

23
------0-------0-------0-------0---|------0-------0-------0-------0---|
----0---0---2---2-0-3---3---0---0-|----2---2---2---2---2---2---2---2-|
----------3---------------1-------|--2-------------------------------|
----------------------------------|----------2-----------------------|
----------------------------------|------------------4-------0-------|
--0-------------------------------|----------------------------------|

25
------3---5---3-------------------|------5---7---5-------------------|
----5---5---5---5-----4-------5---|----7---7---7---7-----6-------7---|
--------------------5---5---6---6-|--------------------6---6---7---7-|
----------------------------------|----------------------------------|
--0---------------0-------0-------|--0---------------0-------0-------|
----------------------------------|----------------------------------|
[ Tab from: http://www.guitaretab.com/m/matteo-carcassi/288938.html ]
27
--3-----3---3---3---2---2---2---2-|------0---------------0-------0---|
--5-------------------------------|----2---2---2---2---2---2---2---2-|
----------------------2-----------|--------------------------2-------|
------------------0-------4---0---|----------2-----------------------|
--0---0---4---0-------------------|--0-----------4---0---------------|
----------------------------------|----------------------------------|

29
------3---5---3-------------------|------5---7---5-------------------|
----5---5---5---5-----4-------5---|----7---7---7---7-----6-------7---|
--------------------5---5---6---6-|--------------------6---6---7---7-|
----------------------------------|----------------------------------|
--0---------------0-------0-------|--0-------------------------------|
----------------------------------|------------------5-------5-------|

31
--3-----3---3---3---2---2---2---2-|--0-----0---0---0---0---0---0---0-|
--5-------------------------------|--2---3---2---0-------------------|
----------------------2-----------|------------------2---0-----------|
------------------0-------4---0---|--------------------------4---2---|
--0---0---4---0-------------------|--0-------------------------------|
----------------------------------|----------------------------------|

33
------2-------2-------4-------4---|------5---------------------------|
----3---3---3---3---3---3---3---3-|----2---2---2---2-----------------|
----------------------------------|----------------------------------|
--0---------------2---------------|----------2-----------------------|
----------2-----------------------|--0-----------4---0---------------|
--------------------------0-------|----------------------------------|

35
--3-----3---3---3---3---3---3---3-|--2-----2---2---2---2---2---2---2-|
--2-------------------------------|--3-------------------------------|
--2-------------------------------|--2-----------2---0---------------|
--------------2---0---------------|--0---0---4-----------4---2---0---|
--0---0---4-----------4---2---0---|----------------------------------|
----------------------------------|----------------------------------|

37
------0-------0-------2-------0---|------2---------------2-------5---|
----3---3---3---3---3---3---2---2-|----3---3---3---3---3---3---7---7-|
--0---------------2---------------|----------2-----------------------|
----------2-----------------------|--0-----------4---0-------0-------|
--------------------------0-------|----------------------------------|
----------------------------------|----------------------------------|

39
------6-------7-------10--12--10--|----------------------------------|
----7---7---8---8---12--12--12--12|------9-------10------10--12--10--|
----------------------------------|----10--10--11--11--11--11--11--11|
--0-------0-------0---------------|--0-------0-------0---------------|
----------------------------------|----------------------------------|
----------------------------------|----------------------------------|

41
------3---5---3-------------------|--2------------------2-----2----2-|
----5---5---5---5-----5---4---5---|--3----3---3---3---3---3-----10---|
--------------------6---6---6---6-|--2--2-------2--------------------|
----------------------------------|--0------4-------0-------0--------|
--0---------------0---------------|----------------------------------|
----------------------------------|----------------------------------|

43
------6-------7-------10--12--10--|----------------------------------|
----7---7---8---8---12--12--12--12|------9-------10------10--12--10--|
----------------------------------|----10--10--11--11--11--11--11--11|
--0-------0-------0---------------|--0-------0-------0---------------|
----------------------------------|----------------------------------|
----------------------------------|----------------------------------|

45
------3---5---3-0-----------------|--2-------------------------------|
----5---5---5---------5---4---5---|--3-----3---3---3---3---3---3---3-|
--------------------6---6---6---6-|--2-----------2---0---------------|
----------------------------------|--0---0---4-----------4---2---0---|
--0---------------0---------------|----------------------------------|
----------------------------------|----------------------------------|

47
--0-----0---0---0---0---0---0---0-|------2-------2-------0-------1---|
----------------------------------|----3---3---3---3---3---3---3---3-|
--2-------------------------------|----------------------------------|
--------------2---0---------------|--0-------------------------------|
--4---0---4-----------4---2---0---|----------------------------------|
----------------------------------|----------2-------3-------4-------|

49
------2-------2-------0-------0---|--2-------------------------------|
----3---3---3---3---2---2---2---2-|--3-----3---3---3---3---3---3---3-|
----------2---------------2-------|--2-----------2---0---------------|
----------------------------------|--0---0---4-----------4---2---0---|
--0---------------0---------------|----------------------------------|
----------------------------------|----------------------------------|

51
--0-----0---0---0---0---0---0---0-|------2-------2-------3-------3---|
----------------------------------|----3---3---3---3---3---3---3---3-|
--2-------------------------------|----------------------------------|
--------------2---0---------------|--0-------------------------------|
--4---0---4-----------4---2---0---|----------3-------2-------1-------|
----------------------------------|----------------------------------|

53
------5-------5-------9-------9---|--10-----------10-10------10------|
----7---7---7---7---8---8---8---8-|--7-------------7-7-------7-------|
--------------------------9-------|--7-------------7-7-------7-------|
----------7-----------------------|--0---------------7---------------|
--0---------------0---------------|--------------------------9-------|
----------------------------------|----------------------------------|

55
--10-----------------------------||
---7-----------------------------||
---7-----------------------------||
---0-----------------------------||
---------------------------------||
---------------------------------||
Related for Op 26 No 5 - Capricho In D tab
×
Best way to learn
"Op 26 No 5 - Capricho In D"