Song name
# A B C D E F G H I J K L M N O P Q R S T U V W X Y Z

Matteo Carcassi - Op 26 No 3 - Capricho In Em tab

Capricho 3 - Matteo Carcassi (1792-1853)

Opus 26 No 3

Transcribed by Evgenij Voos

Moderato con expressione

1
E||-----------0--------------------------|
B||--------0--------0--------0--------1--|
G||-----0--------0--------0--------2-----|
D||--------------------2--------2--------|
A||--------------------------------------|
E||--0-----------------------------------|

2
-----------0--------3-----------------|-----------0--------------------------|
--------0--------0--------0--------0--|--------0--------0--------0--------1--|
-----0--------0--------0--------0-----|-----0--------0--------0--------2-----|
--------------------------------------|--------------------2--------2--------|
-----------------------------2--------|--------------------------------------|
--0-----------------------------------|--0-----------------------------------|

4
-----------0--------3-----------------|-----------1--------2-----------------|
--------0--------0--------0--------0--|--------0--------0--------0--------0--|
-----0--------0--------0--------0-----|-----2--------2--------2--------2-----|
--------------------------------------|--1-----------------------------------|
-----------------------------2--------|-----------------------------2--------|
--0-----------------------------------|--------------------------------------|

6
-----------2--------3-----------------|-----------5-----------------3--------|
--------0--------0--------0--------0--|--------4--------4--------0--------0--|
-----0--------0--------0--------0-----|-----4--------4--------0--------0-----|
--2-----------------------------------|--4-----------------2-----------------|
-----------------------------2--------|--------------------------------------|
--------------------------------------|--------------------------------------|

8
--2-----------------------------------|-----------0--------------------------|
-----0--------0--------0--------0-----|--------0--------0--------0--------1--|
--------------------------------------|-----0--------0--------0--------2-----|
--1-----2--1--------------------------|--------------------2--------2--------|
-----------------3--2-----0-----------|--------------------------------------|
-----------------------------3-----2--|--0-----------------------------------|

10
-----------0--------3-----------------|-----------0--------------------------|
--------0--------0--------0--------0--|--------0--------0--------0--------1--|
-----0--------0--------0--------0-----|-----0--------0--------0--------2-----|
--------------------------------------|--------------------2--------2--------|
-----------------------------2--------|--------------------------------------|
--0-----------------------------------|--0-----------------------------------|

12
-----------0--------3-----------------|-----------4--------5--------------2--|
--------0--------0--------0--------0--|--------3--------3--------3-----1-----|
-----0--------0--------0--------0-----|-----5--------5--------5--------------|
-----------------------------2--------|--0--------------------------0--------|
--------------------------------------|--------------------------------------|
--0-----------------------------------|--------------------------------------|

14
--------3--------3--------3--------3--|-----------4--------5--------------2--|
-----0--------0--------0--------0-----|--------3--------3--------3-----1-----|
--0-----------------------------------|-----5--------5--------5--------------|
-----------0--------------------------|--0--------------------------0--------|
--------------------2-----------------|--------------------------------------|
-----------------------------3--------|--------------------------------------|

16
--------3--------3--------3--------3--|-----------1--------2-----------------|
-----0--------0--------0--------0-----|--------0--------0--------0--------4--|
--0-----------------------------------|-----2--------2--------2--------2-----|
-----------0--------------------------|--1-----------------------------------|
--------------------2-----------------|-----------------------------2--------|
-----------------------------3--------|--------------------------------------|

18
--0-----------------------------------|-----------1--------2-----------------|
--------0--------0--------0--------0--|--------0--------0--------0--------4--|
-----0--------0--------0--------0-----|-----2--------2--------2--------2-----|
--2-----------------------------------|--1-----------------------------------|
-----------2--------------------------|-----------------------------2--------|
--------------------3--------0--------|--------------------------------------|

20
--0-----------------------------------|-----------1--------1--------0--------|
--------0--------0--------0--------0--|--------1--------1--------1--------1--|
-----0--------0--------0--------0-----|-----2--------2--------2--------2-----|
--2-----------------------------------|--------------------------------------|
-----------2--------------------------|--0-----------------------------------|
--------------------3--------0--------|--------------------------------------|

22
-----------------------------0--------|-----------1--------1--------0--------|
-----------4--------------0-----0-----|--------1--------1--------1--------1--|
--------5-----5--------0-----------0--|-----2--------2--------2--------2-----|
-----7-----------7--------------------|--------------------------------------|
--0-----------------------------------|--0-----------------------------------|
--------------------3-----------------|--------------------------------------|

24
-----------------------------0--------|--------------------5-----------------|
-----------4--------------0-----0-----|-----------6--------------------------|
--------5-----5--------0-----------0--|--------5--------5--------5--------5--|
-----7-----------7--------------------|-----7--------7--------7--------7-----|
--0-----------------------------------|--0--------------------------0--------|
--------------------3-----------------|--------------------------------------|

26
-----------0--------3-----------------|--------------------2-----------------|
--------0--------0--------0--------0--|-----------4--------------------------|
-----0--------0--------0--------0-----|--------2--------2--------2--------2--|
--------------------------------------|-----4--------4--------4--------4-----|
--2--------------------------2--------|--2--------------------------2--------|
--------------------------------------|--------------------------------------|

28
-----------0--------------------------|-----------0--------3-----------------|
--------0--------0--------0--------1--|--------0--------0--------0--------0--|
-----0--------0--------0--------2-----|-----0--------0--------0--------0-----|
--------------------2--------2--------|--------------------------------------|
--------------------------------------|-----------------------------2--------|
--0-----------------------------------|--0-----------------------------------|

30                                                         >
-----------0--------------------------|-----------0--------7-----------------|
--------0--------0--------0--------1--|--------0--------0--------0--------0--|
-----0--------0--------0--------2-----|-----0--------0--------0--------0-----|
--------------------2--------2--------|--------------------------------------|
--------------------------------------|--------------------------------------|
--0-----------------------------------|--0--------------------------7--------|

32                  >                                      >
-----------0--------12----------------|-----------0--------15----------------|
--------0--------0--------0--------0--|--------0--------0--------0--------0--|
-----0--------0--------0--------0-----|-----0--------0--------0--------0-----|
--------------------------------------|--------------------------------------|
--------------------------------------|--------------------------------------|
--0--------------------------7--------|--0--------------------------7--------|

34
-----------0--------------------------|-------------------------------------||
--------0--------0--------------------|-------------------------------------||
-----0--------0--------0--------------|-------------------------------------||
--------------------2--------2--------|-------------------------------------||
--------------------------2--------2--|-------------------------------------||
--0-----------------------------3-----|--0----------------------------------||
Tap to rate this tab
# A B C D E F G H I J K L M N O P Q R S T U V W X Y Z