Song name
# A B C D E F G H I J K L M N O P Q R S T U V W X Y Z

Matteo Carcassi - Andante In Em tab

Andante in Em
Matteo Carcassi

(legend below the tab)

              |--3--|  |--3--|  |--3--|  |--3--|   
     E  E     E  E  E  E  E  E  E  E  E  E  E  E   
E||-----0--|-----------3-----------------2--------|
B||--0-----|--------0--------0--------0--------0--|
G||--------|-----0--------0--------2--------2-----|
D||--------|--2-----------------1-----------------|
A||--------|--------------------------------------|
E||--------|--------------------------------------|
 

  |--3--|  |--3--|                |--3--|  |--3--|  |--3--|  |--3--|   
  E  E  E  E  E  E  Q    E  E     E  E  E  E  E  E  E  E  E  E  E  E   
-----------0-------------------|-----------2-----------------3--------|
--------0--------0-------0--0--|--------0--------0--------0--------0--|
-----0--------0----------------|-----2--------2--------0--------0-----|
--2----------------------------|--1-----------------2-----------------|
-------------------------------|--------------------------------------|
--------------------0----------|--------------------------------------|
 

  |--3--|  |--3--|                |--3--|  |--3--|  |--3--|  |--3--|   
  E  E  E  E  E  E  Q    E  E     E  E  E  E  E  E  E  E  E  E  E  E   
-----------2----------------0--|-----------3-----------------3--------|
--------4--------4-------0-----|--------0--------0--------2--------2--|
-----4--------4----------------|-----0--------0--------0--------0-----|
-------------------------------|--2-----------------1-----------------|
--2-----------------2----------|--------------------------------------|
-------------------------------|--------------------------------------|
 

  |--3--|  |--3--|  |--3--|  |--3--|     |--3--|  |--3--|  |--3--|  |--3--|   
  E  E  E  E  E  E  E  E  E  E  E  E     E  E  E  E  E  E  E  E  E  E  E  E   
-----------2-----------------2--------|-----------3-----------------2--------|
--------1--------1--------0--------0--|--------1--------1--------1--------1--|
-----2--------2--------2--------2-----|-----2--------2--------2--------2-----|
--0-----------------1-----------------|--------------------0-----------------|
--------------------------------------|--3-----------------------------------|
--------------------------------------|--------------------------------------|
 

  |--3--|  |--3--|                        
  E  E  E  E  E  E  Q    Q         E  E   
-----------3------------------||------0--|
--------0--------0------------||---0-----|
-----0--------0---------------||*--------|
------------------------------||*--------|
------------------------------||---------|
--3-----------------3---------||---------|
 

  |--3--|  |--3--|  |--3--|  |--3--|     |--3--|  |--3--|              
  E  E  E  E  E  E  E  E  E  E  E  E     E  E  E  E  E  E  Q    E  E   
-----------2-----------------2--------|-----------3-------------0-----|
--------0--------0--------0--------0--|--------0--------0----------3--|
-----2--------2--------2--------2-----|-----0--------0----------------|
--1-----------------------------------|--2----------------------------|
--------------------2-----------------|-------------------------------|
--------------------------------------|--------------------0----------|
 

  |--3--|  |--3--|  |--3--|  |--3--|                             
  E  E  E  E  E  E  E  E  E  E  E  E     Q    E  E  E  E  E  E   
--------------------------------------|-------------------0--2--|
-----------1-----------------2--------|--0-------0--2--4--------|
--------2--------2--------0--------0--|--2----3-----------------|
-----2--------2--------2--------2-----|--1----------------------|
--0-----------------1-----------------|--2----------------------|
--------------------------------------|-------------------------|
 

  |--3--|  |--3--|  |--3--|  |--3--|     |--3--|  |--3--|  |--3--|  |--3--|   
  E  E  E  E  E  E  E  E  E  E  E  E     E  E  E  E  E  E  E  E  E  E  E  E   
-----------3-----------------1--------|-----------0-----------------2--------|
--------0--------0--------0--------0--|--------1--------1--------1--------1--|
-----0--------0--------1--------1-----|-----2--------2--------2--------2-----|
--2-----------------0-----------------|--------------------------------------|
--------------------------------------|--3-----------------0-----------------|
--------------------------------------|--------------------------------------|
 

  |--3--|  |--3--|  |--3--|  |--3--|     |--3--|  |--3--|          
  E  E  E  E  E  E  E  E  E  E  E  E     E  E  E  E  E  E  Q       
-----------3-----------------2--------|-----------0--------------||
--------0--------0--------0--------0--|--------0--------0--------||
-----0--------0--------2--------2-----|-----0--------0----------*||
--------------------1-----------------|--2----------------------*||
--2-----------------------------------|--------------------------||
--------------------------------------|--------------------0-----||
 

Legend
---------------
Q   - quarter note
E   - 8th note

|-3-|   - triplets (in groups of 3 - 3 notes played in the time of 2)

||--
||--
||*-   repeat from
||*-
||--
||--

            --||
            --||
repeat to   -*||
            -*||
            --||
            --||
Tap to rate this tab
# A B C D E F G H I J K L M N O P Q R S T U V W X Y Z