Song name
# A B C D E F G H I J K L M N O P Q R S T U V W X Y Z

Matteo Carcassi - Study In A tab

----------------------------------------------------------------------------
                        Matteo Carcassi - Study in A
----------------------------------------------------------------------------

tabbed by: JesseLaceyIsGod
 ilikesubs123@aol.com




e|----2---0--------|------2--0-------|----5---4--------|
B|---2---2---2---2-|-----3--3--3---3-|---3---3---3---3-|
G|--2---2---2---2--|----4--4--4---4--|--4---4---4---4--|
D|-----------------|-----------------|-----------------|
A|-0----------0----|-----------------|-----------------|
E|-----------------|-4-----------4---|-0-----------0---|


e|----7---5--------|----4---2--------|----2---0--------|
B|---5---5---5---5-|---2---2---2---2-|---2---2---2---2-|
G|--6---6---6---6--|--2---2---2---2--|--0---0---0---0--|
D|-----------------|-----------------|-----------------|
A|-0-----------0---|-0-----------0---|-1-----------1---|
E|-----------------|-----------------|-----------------|


e|-----------------|-----0-----------|----2---0--------|
B|----5-------4----|----0----0-------|---0---0---0---0-|
G|---2---2---2---2-|---1----1--------|--1---1---1---1--|
D|--4---4---4---4--|-----------2-----|-------------2---|
A|-2-------2-------|-----------------|-----------------|
E|-----------------|-0---------------|-0---------------|


e|----4---2--------|----3---2--------|----5---4--------|
B|---2---2---2---2-|---2---2---2---2-|---3---3---3---3-|
G|--2---2---2---2--|--3---3---3---3--|--4---4---4---4--|
D|-------------2---|-------------2---|-------------2---|
A|-----------------|-----------------|-----------------|
E|-0---------------|-0---------------|-0---------------|


e|----5---4--------|----5-------5----|----7-------8----|
B|---3---3---3---3-|---2---2---2---2-|---7---7---7---7-|
G|--4---4---4---4--|--2---2---2---2--|--7---7---7---7--|
D|-3-----------3---|-4-------4-------|-0-------0-------|
A|-----------------|-----------------|-----------------|
E|-----------------|-----------------|-----------------|


e|-----9---------0-|----2---0--------|----5---4--------|
B|----9---9-----0--|---2---2---2---2-|---3---3---3---3-|
G|--10--10---------|--2---2---2---2--|--4---4---4---4--|
D|---------11-12---|-----------------|-----------------|
A|-----------------|-0-----------0---|-0-----------0---|
E|-9---------------|-----------------|-----------------|


e|----2---0--------|----7---5------0-|----7---6--------|
B|---0---0---0--0--|---5---5---5-----|---5---5---5---5-|
G|--1---1---1--1---|--6---6---6---6--|--6---6---6---6--|
D|-----------------|-------------7---|-4-----------4---|
A|-0----------0----|-0---------------|-----------------|
E|-----------------|-----------------|-----------------|


e|----9---7---10---|----1-------0----|----5------------|
B|---7---7---7---7-|---0---0---3---3-|---5---5---------|
G|--7---7---7---7--|--2---2---1---1--|--6---6----------|
D|-0---------------|-1-------2-------|----------7------|
A|-----------------|-----------------|-0---------------|
E|-----------------|-----------------|-----------------|



that's it, enjoy :]
Tap to rate this tab
 
# A B C D E F G H I J K L M N O P Q R S T U V W X Y Z