Song name
# A B C D E F G H I J K L M N O P Q R S T U V W X Y Z

Matthaus Waissel - Fantasia tab

Fantasia - Matthдus Waissel (1540-1602)
from "Lautenbuch darinn von der Tabulatur und Application der Lauten" - 1592

TablEdited by Hamilcar - http://membres.multimania.fr/classicalguitar/

Tuning: E A D F# B E   -   Time Signature: 4/4

 |       |       |       |        |       |       |       |
|0-------------------------------|--------------------------------|
|----------------1---------------|0---------------------------1---|
|------------------------3-------|--------2-------3---------------|
|--------------------------------|2-------------------------------|
|--------------------------------|----------------3-------0-------|
|--------------------------------|--------------------------------|

 |       |       |       |        |       |       |       |
|--------------------------------|--------------------------------|
|0-----------------------0-------|--------------------------------|
|----3---2---0---2---------------|1-----------0-----------3-------|
|0---------------2---------------|--------2-------2---------------|
|--------------------------------|----------------3---------------|
|--------------------------------|--------------------------------|

 |       |       |       |        |       |       |       |
|--------------------------------|------------------------5-------|
|----------------1---------------|--------------------------------|
|3-------5---------------3-------|----2-0-2-------3---------------|
|4---------------2---------------|0---------------2---------------|
|5---------------0---------------|2---------------0---------------|
|--------------------------------|--------------------------------|

 |       |       |       |        |       |       |       |
|2---------------3-------0-------|--------------------------------|
|3-------3-------0---------------|1-------1-------0---------------|
|3-------5-------1---------------|1-------3-----------2---3-2-0-2-|
|0-------5-------2---------------|----------------2---------------|
|--------------------------------|3-------0-----------------------|
|--------------------------------|--------------------------------|

 |       |       |       |        |       |       |       |
|--------------------------------|--------------------------------|
|----0-1-3-------------0-1-------|--------0-----------------------|
|3---------------1---3-----------|0---1-3-------------0-1-3-------|
|3---------------2---------------|0---------------2---------------|
|--------------------------------|----------------3---------------|
|--------------------------------|--------------------------------|

 |       |       |       |        |       |       |       |
|--------------------------------|--------------------------------|
|--------------------0---1-------|----------------0---------------|
|3-------2-------3---------------|--------1---3---------------3---|
|----------------2---------------|----0---2-----------0-----------|
|2---------------0-----------2---|3-----------------------2-------|
|--------------------------------|--------------------------------|

 |       |       |       |        |       |       |       |
|--------------------------------|--------------------------------|
|--------------------------------|--------------------------------|
|0---1---3-----------1-------0---|1-------3-----------3---2-------|
|0-----------------------2-------|--------------------------------|
|------------3---0-------3-------|----2---0-------2---------------|
|--------------------------------|--------------------------------|

 |       |       |       |        |       |       |       |
|--------0-------2-------5-------|3-------2-------0-----------3---|
|--------------------------------|0-------3-------1-----------0---|
|3-----------------------3-------|--------------------------------|
|--------------------------------|------------------------2-------|
|0---------------0---------------|--------------------------------|
|--------------------------------|--------------------------------|

 |       |       |       |        |       |       |       |
|2-------0-------0---------------|0-------------------------------|
|3-------1-------0-------4-------|1-------0---------------1-------|
|--------3-------1-------3-------|3-------2-------3---------------|
|0-----------------------4-------|2-------------------------------|
|--------------------------------|------------------------0-------|
|--------------------------------|--------0-------2---------------|

 |       |       |       |        |       |       |       |
|--------------------------------|--------------------------------|
|0---------------1---------------|--------0-------1-------3-------|
|--------3-----------3-------2---|3-------------------0-------1---|
|--------------------------------|----0-------2-------------------|
|----------------0---------------|----------------0-------2-------|
|3-------2---------------0-------|2-------3-----------------------|

 |       |       |       |        |       |       |       |
|0---------------0---------------|--------------------------------|
|------------0-------3---1---0---|----3-------1-0-----1-------0---|
|----3---1-------1---------------|3---------------1-------------3-|
|--------0-------2---------------|3-------0-------2---------------|
|3-------------------------------|------------------------3-------|
|--------------------------------|--------------------------------|

 |       |       |       |        |       |       |       |
|--------------------------------|--------------------------------|
|----0---------------------------|----3-----1-0---1-------0-------|
|0-----------3-1-----3-------1-0-|--------------------3---3---2---|
|0---------------2---------------|0-------------------------------|
|--------2-------3-------0-------|2---------------0-------2-------|
|--------------------------------|--------3-----------------------|

 |       |       |       |        |       |       |       |
|0---------------0---------------|0---------------0---------------|
|1---------------1---------------|0-------1-------0---------------|
|3---------------------------0---|1-------3-------------2-3-2-0-2-|
|------------0---2---0---2-------|----2-----------2---------------|
|0---2---3-----------------------|--------------------------------|
|--------------------------------|--------------------------------|

 |       |       |       |        |       |       |       |
|0-------8-------7-------7-------|5-------0-------0---------------|
|1-------5---------------5-------|5-------1-------0---------------|
|3-------------------------------|6-------3-------3-------2-------|
|--------7---------------6-------|----------------2---------------|
|0-------------------------------|--------0-----------------------|
|--------------------------------|5-------------------------------|

 |       |       |       |        |       |       |       |
|0-------5-------0-------3-------|2-------0-------0---------------|
|1---------------0---------------|1---------------0-----------4---|
|3-------6-------1---------------|3-----------1---0-----------0---|
|----------------2---------------|------------------------2-------|
|0-------------------------------|0---------------2---------------|
|--------------------------------|--------------------------------|

 |       |       |       |        |       |       |       |
|0---------------0-------0-------|0-------------------------------|
|1---------------1-------0-------|1-----------------------0-------|
|1-------3-------3---------------|3-------------------3-------3---|
|--------------------------------|------------------------0-------|
|3-----------2---0---------------|0-------2-------3---------------|
|------------------------4-------|--------------------------------|

 |       |       |       |
|0---------------0--------------||
|0---------------0--------------||
|----2-3-2---0---2--------------||
|2------------------------------||
|-------------------------------||
|----------------0--------------||

Tap to rate this tab
# A B C D E F G H I J K L M N O P Q R S T U V W X Y Z