Song name
# A B C D E F G H I J K L M N O P Q R S T U V W X Y Z

Matthew Good Band - Apparitions tab

Hope you can read tabs guys : )

Song:Apparitions
Band:Matthew Good Band
Album:Underdogs (Can) Beautiful Midnight (USA)

verse 1
e|-0--0-0-0-0-0-0-0-0---0--0-0-0-0-0-0-0-0|-0--0-0-0-0-0-0-0-0-|
b|-0--0-0-0-0-0-0-0-0---0--0-0-0-0-0-0-0-0|-0--0-0-0-0-0-0-0-0-|
g|-8--8-8-8-8-8-8-8-8---8--8-8-8-8-8-8-8-8|-1--1-1-1-1-1-1-1-1-|
d|-9--9-9-9-9-9-9-9-9---9--9-9-9-9-9-9-9-9|-2--2-2-2-2-2-2-2-2-|
a|-9--9-9-9-9-9-9-9-9---9--9-9-9-9-9-9-9-9|-2--2-2-2-2-2-2-2-2-|
E|-7--7-7-7-7-7-7-7-7---7--7-7-7-7-7-7-7-7|-0--0-0-0-0-0-0-0-0-|

e|-0--0-0-0-0-0-0-0-0|-----------------------------------------|
b|-0--0-0-0-0-0-0-0-0|-----------------------------------------|
g|-1--1-1-1-1-1-1-1-1|-----------------------------------------|
d|-2--2-2-2-2-2-2-2-2|-6--6-6-6-6-6-6-6-6---6--6-6-6-6-6-6-6-6-|
a|-2--2-2-2-2-2-2-2-2|-6--6-6-6-6-6-6-6-6---6--6-6-6-6-6-6-6-6-|
E|-0--0-0-0-0-0-0-0-0|-4--4-4-4-4-4-4-4-4---4--4-4-4-4-4-4-4-4-|

e|-------------------------------------------------------------|
b|-------------------------------------------------------------|
g|-6--6-6-6-6-6-6-6-6---9--9-9-9-9-9-9-9-9---9--9-9-9-9-9-9-9-9|
d|-6--6-6-6-6-6-6-6-6---9--9-9-9-9-9-9-9-9---9--9-9-9-9-9-9-9-9|
a|-4--4-4-4-4-4-4-4-4---7--7-7-7-7-7-7-7-7---7--7-7-7-7-7-7-7-7|
E|-------------------------------------------------------------|

e|-0--0-0-0-0-0-0-0-0---0--0-0-0-0-0-0-0-0|-0--0-0-0-0-0-0-0-0-|
b|-0--0-0-0-0-0-0-0-0---0--0-0-0-0-0-0-0-0|-0--0-0-0-0-0-0-0-0-|
g|-8--8-8-8-8-8-8-8-8---8--8-8-8-8-8-8-8-8|-1--1-1-1-1-1-1-1-1-|
d|-9--9-9-9-9-9-9-9-9---9--9-9-9-9-9-9-9-9|-2--2-2-2-2-2-2-2-2-|
a|-9--9-9-9-9-9-9-9-9---9--9-9-9-9-9-9-9-9|-2--2-2-2-2-2-2-2-2-|
E|-7--7-7-7-7-7-7-7-7---7--7-7-7-7-7-7-7-7|-0--0-0-0-0-0-0-0-0-|

e|-0--0-0-0-0-0-0-0-0|-----------------------------------------|
b|-0--0-0-0-0-0-0-0-0|-----------------------------------------|
g|-1--1-1-1-1-1-1-1-1|-----------------------------------------|
d|-2--2-2-2-2-2-2-2-2|-6--6-6-6-6-6-6-6-6---6--6-6-6-6-6-6-6-6-|
a|-2--2-2-2-2-2-2-2-2|-6--6-6-6-6-6-6-6-6---6--6-6-6-6-6-6-6-6-|
E|-0--0-0-0-0-0-0-0-0|-4--4-4-4-4-4-4-4-4---4--4-4-4-4-4-4-4-4-|

e|-------------------------------------------------------------|
b|-------------------------------------------------------------|
g|-6--6-6-6-6-6-6-6-6---9--9-9-9-9-9-9-9-9---6--6-6-6-6-6-6-6-6|
d|-6--6-6-6-6-6-6-6-6---9--9-9-9-9-9-9-9-9---6--6-6-6-6-6-6-6-6|
a|-4--4-4-4-4-4-4-4-4---7--7-7-7-7-7-7-7-7---4--4-4-4-4-4-4-4-4|
E|-------------------------------------------------------------|

e|-------------------------------------------------------------|
b|-------------------------------------------------------------|
g|-9--9-9-9-9-9-9-9-9---9--9-9-9-9-9-9-9-9---------------------|
d|-9--9-9-9-9-9-9-9-9---9--9-9-9-9-9-9-9-9---------------------|
a|-7--7-7-7-7-7-7-7-7---7--7-7-7-7-7-7-7-7---------------------|
E|-------------------------------------------------------------|

Chorus
e|-------------------------------------------------------------|
b|-------------------------------------------------------------|
g|-------------------------------------------------------------|
d|9--9-9-9-9-9-9-9-9---9--9-9-9-9-9-9-9-9---4--4-4-4-4-4-4-4-4-|
a|9--9-9-9-9-9-9-9-9---9--9-9-9-9-9-9-9-9---4--4-4-4-4-4-4-4-4-|
E|7--7-7-7-7-7-7-7-7---7--7-7-7-7-7-7-7-7---2--2-2-2-2-2-2-2-2-|

e|-------------------------------------------------------------|
b|-------------------------------------------------------------|
g|-------------------------------------------------------------|
d|4--4-4-4-4-4-4-4-4---7--7-7-7-7-7-7-7-7---7--7-7-7-7-7-7-7-7-|
a|4--4-4-4-4-4-4-4-4---7--7-7-7-7-7-7-7-7---7--7-7-7-7-7-7-7-7-|
E|2--2-2-2-2-2-2-2-2---5--5-5-5-5-5-5-5-5---5--5-5-5-5-5-5-5-5-|

e|-------------------------------------------------------------|
b|-------------------------------------------------------------|
g|-------------------------------------------------------------|
d|2--2-2-2-2-2-2-2-2---2--2-2-2-2-2-2-2-2----------------------|
a|2--2-2-2-2-2-2-2-2---2--2-2-2-2-2-2-2-2----------------------|
E|0--0-0-0-0-0-0-0-0---0--0-0-0-0-0-0-0-0----------------------|

Bridge
e|-------------------------------------------------------------|
b|-------------------------------------------------------------|
g|--------------------9-9-9-9-9-9-9-9-9------------------------|
d|6-6---9-9-9-9-9-9---9-9-9-9-9-9-9-9-9----6-6---9-9-9-9-9-9---|
a|6-6---9-9-9-9-9-9---7-7-7-7-7-7-7-7-7----6-6---9-9-9-9-9-9---|
E|4-4---7-7-7-7-7-7------------------------4-4---7-7-7-7-7-7---|

e|-------------------------------------------------------------|
b|-------------------------------------------------------------|
g|9--9-9-9--12-------------------------------------------------|
d|9--9-9-9--12-------------------------------------------------|
a|7--7-7-7--10-------------------------------------------------|
E|-------------------------------------------------------------|

Verse 2
e|-0--0-0-0-0-0-0-0-0---0--0-0-0-0-0-0-0-0|-0--0-0-0-0-0-0-0-0-|
b|-0--0-0-0-0-0-0-0-0---0--0-0-0-0-0-0-0-0|-0--0-0-0-0-0-0-0-0-|
g|-8--8-8-8-8-8-8-8-8---8--8-8-8-8-8-8-8-8|-1--1-1-1-1-1-1-1-1-|
d|-9--9-9-9-9-9-9-9-9---9--9-9-9-9-9-9-9-9|-2--2-2-2-2-2-2-2-2-|
a|-9--9-9-9-9-9-9-9-9---9--9-9-9-9-9-9-9-9|-2--2-2-2-2-2-2-2-2-|
E|-7--7-7-7-7-7-7-7-7---7--7-7-7-7-7-7-7-7|-0--0-0-0-0-0-0-0-0-|

e|-0--0-0-0-0-0-0-0-0|-----------------------------------------|
b|-0--0-0-0-0-0-0-0-0|-----------------------------------------|
g|-1--1-1-1-1-1-1-1-1|-----------------------------------------|
d|-2--2-2-2-2-2-2-2-2|-6--6-6-6-6-6-6-6-6---6--6-6-6-6-6-6-6-6-|
a|-2--2-2-2-2-2-2-2-2|-6--6-6-6-6-6-6-6-6---6--6-6-6-6-6-6-6-6-|
E|-0--0-0-0-0-0-0-0-0|-4--4-4-4-4-4-4-4-4---4--4-4-4-4-4-4-4-4-|

e|-------------------------------------------------------------|
b|-------------------------------------------------------------|
g|-6--6-6-6-6-6-6-6-6---9--9-9-9-9-9-9-9-9---9--9-9-9-9-9-9-9-9|
d|-6--6-6-6-6-6-6-6-6---9--9-9-9-9-9-9-9-9---9--9-9-9-9-9-9-9-9|
a|-4--4-4-4-4-4-4-4-4---7--7-7-7-7-7-7-7-7---7--7-7-7-7-7-7-7-7|
E|-------------------------------------------------------------|

e|-0--0-0-0-0-0-0-0-0---0--0-0-0-0-0-0-0-0|-0--0-0-0-0-0-0-0-0-|
b|-0--0-0-0-0-0-0-0-0---0--0-0-0-0-0-0-0-0|-0--0-0-0-0-0-0-0-0-|
g|-8--8-8-8-8-8-8-8-8---8--8-8-8-8-8-8-8-8|-1--1-1-1-1-1-1-1-1-|
d|-9--9-9-9-9-9-9-9-9---9--9-9-9-9-9-9-9-9|-2--2-2-2-2-2-2-2-2-|
a|-9--9-9-9-9-9-9-9-9---9--9-9-9-9-9-9-9-9|-2--2-2-2-2-2-2-2-2-|
E|-7--7-7-7-7-7-7-7-7---7--7-7-7-7-7-7-7-7|-0--0-0-0-0-0-0-0-0-|

e|-0--0-0-0-0-0-0-0-0|-----------------------------------------|
b|-0--0-0-0-0-0-0-0-0|-----------------------------------------|
g|-1--1-1-1-1-1-1-1-1|-----------------------------------------|
d|-2--2-2-2-2-2-2-2-2|-6--6-6-6-6-6-6-6-6---6--6-6-6-6-6-6-6-6-|
a|-2--2-2-2-2-2-2-2-2|-6--6-6-6-6-6-6-6-6---6--6-6-6-6-6-6-6-6-|
E|-0--0-0-0-0-0-0-0-0|-4--4-4-4-4-4-4-4-4---4--4-4-4-4-4-4-4-4-|

e|-------------------------------------------------------------|
b|-------------------------------------------------------------|
g|-6--6-6-6-6-6-6-6-6---9--9-9-9-9-9-9-9-9---6--6-6-6-6-6-6-6-6|
d|-6--6-6-6-6-6-6-6-6---9--9-9-9-9-9-9-9-9---6--6-6-6-6-6-6-6-6|
a|-4--4-4-4-4-4-4-4-4---7--7-7-7-7-7-7-7-7---4--4-4-4-4-4-4-4-4|
E|-------------------------------------------------------------|

e|-------------------------------------------------------------|
b|-------------------------------------------------------------|
g|-9--9-9-9-9-9-9-9-9---9--9-9-9-9-9-9-9-9---------------------|
d|-9--9-9-9-9-9-9-9-9---9--9-9-9-9-9-9-9-9---------------------|
a|-7--7-7-7-7-7-7-7-7---7--7-7-7-7-7-7-7-7---------------------|
E|-------------------------------------------------------------|

Chorus(again)
e|-------------------------------------------------------------|
b|-------------------------------------------------------------|
g|-------------------------------------------------------------|
d|9--9-9-9-9-9-9-9-9---9--9-9-9-9-9-9-9-9---4--4-4-4-4-4-4-4-4-|
a|9--9-9-9-9-9-9-9-9---9--9-9-9-9-9-9-9-9---4--4-4-4-4-4-4-4-4-|
E|7--7-7-7-7-7-7-7-7---7--7-7-7-7-7-7-7-7---2--2-2-2-2-2-2-2-2-|

e|-------------------------------------------------------------|
b|-------------------------------------------------------------|
g|-------------------------------------------------------------|
d|4--4-4-4-4-4-4-4-4---7--7-7-7-7-7-7-7-7---7--7-7-7-7-7-7-7-7-|
a|4--4-4-4-4-4-4-4-4---7--7-7-7-7-7-7-7-7---7--7-7-7-7-7-7-7-7-|
E|2--2-2-2-2-2-2-2-2---5--5-5-5-5-5-5-5-5---5--5-5-5-5-5-5-5-5-|

e|-------------------------------------------------------------|
b|-------------------------------------------------------------|
g|-------------------------------------------------------------|
d|2--2-2-2-2-2-2-2-2---2--2-2-2-2-2-2-2-2----------------------|
a|2--2-2-2-2-2-2-2-2---2--2-2-2-2-2-2-2-2----------------------|
E|0--0-0-0-0-0-0-0-0---0--0-0-0-0-0-0-0-0----------------------|

Outro
e|-------------------------------------------------------------|
b|-------------------------------------------------------------|
g|-------------------------------------------------------------|
d|9--9-9-9-9-9-9-9-9---9--9-9-9-9-9-9-9-9---4--4-4-4-4-4-4-4-4-|
a|9--9-9-9-9-9-9-9-9---9--9-9-9-9-9-9-9-9---4--4-4-4-4-4-4-4-4-|
E|7--7-7-7-7-7-7-7-7---7--7-7-7-7-7-7-7-7---2--2-2-2-2-2-2-2-2-|

e|-------------------------------------------------------------|
b|-------------------------------------------------------------|
g|---------------------9---------------------------------------|
d|4--4-4-4-4-4-4-4-4---9---------------------------------------|
a|4--4-4-4-4-4-4-4-4---7---------------------------------------|
E|2--2-2-2-2-2-2-2-2-------------------------------------------|

SOLO: For this part I guess you're  gonna have to figure this out
on your own, to what ever you think sounds right, But I'm Preety
sure it might be the bridge part distored in full vibreto.

Ending
e|-------------------------------------------------------------|
b|-------------------------------------------------------------|
g|-------------------------------------------------------------|
d|9--9-9-9-9-9-9-9-9---9--9-9-9-9-9-9-9-9---4--4-4-4-4-4-4-4-4-|
a|9--9-9-9-9-9-9-9-9---9--9-9-9-9-9-9-9-9---4--4-4-4-4-4-4-4-4-|
E|7--7-7-7-7-7-7-7-7---7--7-7-7-7-7-7-7-7---2--2-2-2-2-2-2-2-2-|

e|-------------------------------------------------------------|
b|-------------------------------------------------------------|
g|---------------------9---------------------------------------|
d|4--4-4-4-4-4-4-4-4---9---------------------------------------|
a|4--4-4-4-4-4-4-4-4---7---------------------------------------|
E|2--2-2-2-2-2-2-2-2-------------------------------------------|

Have fun with this.

~Matt~
Tap to rate this tab
# A B C D E F G H I J K L M N O P Q R S T U V W X Y Z