Song name
# A B C D E F G H I J K L M N O P Q R S T U V W X Y Z

Matthew Good Band - Suburbia tab

Song:  Suburbia
Band:  Matthew Good Band 
Album: Beautiful Midnight
Tabbed by:  Goutom Ty Basu

Capo 4th Fret


Pattern 1

E-|--------------------------------------------------------------------|
B-|--------------------------0---------0-------------------------------|
G-|-----------3-------------------3------------------------------------|
D-|-1-------------------1----------------------------------------------|
A-|------2---------2---------------------------------------------------|
E-|--------------------------------------------------------------------|
                                                                               
Pattern 2
                                                                      
E-|--------------------------------------------------------------------|
B-|-----------0--------------0---------0-------------------------------|
G-|---------------------1---------3------------------------------------|
D-|-1--------------2---------------------------------------------------|
A-|------2-------------------------------------------------------------|
E-|--------------------------------------------------------------------|
   
Tap to rate this tab
# A B C D E F G H I J K L M N O P Q R S T U V W X Y Z