Song name
# A B C D E F G H I J K L M N O P Q R S T U V W X Y Z

Matthew Good Band - Under The Influence tab

Help us improve GuitareTab! Take a short survey!
Under the Influence
MATTHEW GOOD BAND
The Audio of Being

Tabbed by Brad Perry (Rubix)

Tuning: Eb Ab Db Gb Bb Eb

NOTES: This song has A LOT of guitar tracks, so I apologize if this tab's a little hard to 

follow.

VERSES 1 & 2 - Matt's Guitar (well, it's actually played on a piano, but...)
|---------|
|---------|
|------9--|
|--9---x--|
|--x---7--|
|--7------|

VERSES 1 & 2 - Dave's Guitar (this is actually two different tracks on the album, but he plays 

they together during live performances)
|--10------------------12-------------10--------------|
|-----10-----------10-----12-------------10-----------|
|--------11b12r11------------11b12r11-------11b12r11--|
|-----------------------------------------------------|
|-----------------------------------------------------|
|-----------------------------------------------------|

VERSE 2 ONLY - Extra Matt's Guitar (played at the beginning of the last few measures)
|-----|
|-----|
|-----|
|--9--|
|--9--|
|--7--|

VERSE 2 ONLY - Extra Dave's Guitar (played with some crazy analog delay)
|---------12--|
|--12--10-----|
|-------------|
|-------------|
|-------------|
|----------------------------------------------|

END OF VERSE 2/PRE-CHORUS 2 - ANOTHER of Dave's Guitars (played with slide; flows right into the 

pre-chorus)
|-----------------|
|-----------------|
|-----------------|
|--9s12-s14--4s9--|
|-----------------|
|-----------------|

PRE-CHORUSES 1 & 2 - Matt's Guitar
|-----|
|-----|
|-----|
|--2--|
|--2--|
|--0--|

PRE-CHORUS 1 - Dave's Guitar (played with a slide)
|-------------|
|-------------|
|-------------|
|--4s9--9s16--|
|-------------|
|-------------|

CHORUSES - Matt's Guitar
|----------------------------------------|----------------------------------------|
|----------------------------------------|----------------------------------------|
|----------------------------------------|----------------------------------------|
|--5-5--5-5--5-5-5-5--9-9--9-9--9-9-9-9--|--5-5--5-5--5-5-5-5--9-9--9-9--9-9-9-9--|
|--5-5--5-5--5-5-5-5--9-9--9-9--9-9-9-9--|--5-5--5-5--5-5-5-5--9-9--9-9--9-9-9-9--|
|--3-3--3-3--3-3-3-3--7-7--7-7--7-7-7-7--|--3-3--3-3--3-3-3-3--7-7--7-7--7-7-7-7--|
|
|-----------------------------------|
|-----------------------------------|
|-----------------------------------|
|--5-5-5-5-5-5-5-5-7-7-7-7-7-7-7-7--|
|--5-5-5-5-5-5-5-5-7-7-7-7-7-7-7-7--|
|--3-3-3-3-3-3-3-3-5-5-5-5-5-5-5-5--|

CHORUSES - Dave's Guitar
|-----------------------------|-------------------------|
|--7-7-7-7-7p5-5-5-5p3-3-3-3--|-5-5-5-5-5-5-5-5--3-3-3--|
|-----------------------------|-------------------------|
|-----------------------------|-------------------------|
|-----------------------------|-------------------------|
|-----------------------------|-------------------------|
|
|-------------------------|
|-5-5-5-5-5-5-5-5--3-3-3--|
|-------------------------|
|-------------------------|
|-------------------------|
|-------------------------|

OUT OF 1ST CHORUS - Matt's Guitar
|-----|
|-----|
|-----|
|--9--|
|--9--|
|--7--|

OUT OF 1ST CHORUS - Dave's Guitar (played with a slide)
|--------------------|
|--------------------|
|--------------------|
|--9--s12-s14--9s12--|
|--------------------|
|--------------------|

OUT OF 2ND CHORUS - Matt's Guitar (palm-muted halfway through)
|-----------------------------------|
|-----------------------------------|
|-----------------------------------|
|--2-2-2-2-2-2-2-2-2-2-2-2-2-2-2-2--|
|--2-2-2-2-2-2-2-2-2-2-2-2-2-2-2-2--|
|--0-0-0-0-0-0-0-0-0-0-0-0-0-0-0-0--|

OUT OF 2ND CHORUS - Dave's Guitar
|--12-----|
|--15b17--|
|---------|
|---------|
|---------|
|---------|

SOLO - Matt's Guitar
|------------------------------------------------------------------------------|
|------------------------------------------------------------------------------|
|------------------------------------------------------------------------------|
|--5-5--5-5--5-5-5-5--9-9--9-9--9-9-9-9--7-7--7-7--7-7-7-7--2-2--2-2--2-2-2-2--|
|--5-5--5-5--5-5-5-5--9-9--9-9--9-9-9-9--7-7--7-7--7-7-7-7--2-2--2-2--2-2-2-2--|
|--3-3--3-3--3-3-3-3--7-7--7-7--7-7-7-7--5-5--5-5--5-5-5-5--0-0--0-0--0-0-0-0--|

SOLO - Dave's Guitar
|--12-12-12-12-12p10-12-12-12-12-12p10-12-12-12p10--|
|---------------------------------------------------|
|---------------------------------------------------|
|---------------------------------------------------|
|---------------------------------------------------|
|---------------------------------------------------|
|
|--12-12-12-12-12p10-12-12-12-12-12p10-12-12-12p10--|
|---------------------------------------------------|
|---------------------------------------------------|
|---------------------------------------------------|
|---------------------------------------------------|
|---------------------------------------------------|
|
|--9-9-9-9-9h10-9-9-9-9-9h10-9-9-9h10--10-12-10-9--|
|--9-9-9-9-9----9-9-9-9-9----9-9-9-----------------|
|--------------------------------------------------|
|--------------------------------------------------|
|--------------------------------------------------|
|--------------------------------------------------|
|
|-----14----15p14-------14----15p14----14----15p14-------14----15p14--|
|--15----15-------15-15----15-------15----15-------15-15----15--------|
|----------------------------------------------------------
Related for Under The Influence tab