Song name
# A B C D E F G H I J K L M N O P Q R S T U V W X Y Z

Matthew Good Band - The Rat Who Would Be King tab

The Rat Who Would Be King
MATTHEW GOOD BAND
The Audio of Being

Tabbed by Bookburner

Lead opening lick
E-------------------------|
B-------------------------|
G---8b---6----5-----6-----|
D------------8----8-------|
A-------------------------|
E-------------------------|


Intro/Verse Rhythm Guitar
E-------------------------|
B-------------------------|
G-------------------------|
D-6--4---8----------------|
A-6--4---8----------------|
E-4--2---6----------------|

Pre-chorus lead (play various patterns of these notes)
E------------------------------|-------------------------------|
B------------------------------|--11---13---14--13---11--------|
G---10/11---13---11-10---|-------------------------------------|
D------------------------------|-------------------------------|
A------------------------------|-------------------------------|
E------------------------------|-------------------------------|

Pre-Chorus Rhythm
E-------------------------|
B-------------------------|
G--6----------------------|
D--6--8----6--8-----------|
A--4--8----6--8-----------|
E------6---4---6----------|

Chorus Lead
E-------------11--13---| |---------------11---13--14--13----------------|
B---11--14-------------| |----11---14-----------------------------------|
G------------------------| x2 then |------------------------------------|
D------------------------| |--------------------------------------------|
A------------------------| |--------------------------------------------|
E------------------------| |--------------------------------------------|

Chorus Rhythm
E-------------------------------|
B-------------------------------|
G-------------------------------|
D--8--6--4------------------6---|
A--8--6--4------------------6---|
E--6--4--2----possibly a -4-----| at the end of the phrase i cant tell

The tone of the alarm sound at the end is
B---11
Tap to rate this tab
 
# A B C D E F G H I J K L M N O P Q R S T U V W X Y Z