Song name
# A B C D E F G H I J K L M N O P Q R S T U V W X Y Z

Matthew Good Band - Man Of Action tab

Man Of Action
MATTHEW GOOD BAND
The Audio of Being

Tabbed by Bookburner

The heavily effected lead lick

E-----9-10-9----------------|
B--9------------------------|
G---------------------------|
D---------------------------|
A---------------------------|
E---------------------------|

Verse/Chorus
E--------------- -------|
B--------------- -------|
G---7---6------- ---9---|
D---7---6---2--- ---9---|
A---5---4---2--- ---7---|
E-----------0--- -------|
  possibly end with ^

The Breakdown
E---------------------------------------------------------|
B---------------------------------------------------------|
G--------7-7--6--6------------7--7------------------------|
D--4-4---7-7--6--6-----4--4---7--7--7---7---2-------------|
A--4-4---5-5--4--4-----4--4---5--5--7---7---2-------------|
E--2-2-----------------2--2---------5---5---0-------------|

E---------------------------------------------------------|
B---------------------------------------------------------|
G--------7-7--6--6------------7--7------------------------|
D--4-4---7-7--6--6-----4--4---7--7--4--4/7---2------------|
A--4-4---5-5--4--4-----4--4---5--5--4--4/7---2------------|
E--2-2-----------------2--2---------2--2/5---0------------|


Bridge
E----------------------------|
B----------------------------|
G---------------7------------|
D---4---7---2---7--7--2------| X2
A---4---7---2---5--7--2------|
E---2---5---0------5--0------|

end with

E------------------|
B------------------|
G------------------|
D---4----7---------|
A---4----7---------|
E---2----5---------|

The third verse (???) has two cleans guitars that do these licks

E-----------------|
B-----------------|
G----------9------|
D------9----------|
A---7-------------|
E-----------------|

and

E--------------------------|
B--------------------------|
G--------------------------|
D--------------------------|
A----9/11--11/12-----7-----|
E--------------------------|

OUTRO

E-------------------|
B-------------------|
G-------------------|
D--4----7---2-------|
A--4----7---2-------|
E--2----5---0-------|
Tap to rate this tab
 
# A B C D E F G H I J K L M N O P Q R S T U V W X Y Z